  0
SECTION
  2
HEADER
  9
$ACADVER
  1
AC1015
  9
$ACADMAINTVER
 70
    18
  9
$DWGCODEPAGE
  3
ANSI_1252
  9
$INSBASE
 10
0.0
 20
0.0
 30
0.0
  9
$EXTMIN
 10
-54.07012847958845
 20
-50.42600949903249
 30
-0.0015258207003583
  9
$EXTMAX
 10
54.07653863783526
 20
64.02612346716478
 30
0.0000000349246037
  9
$LIMMIN
 10
0.0
 20
0.0
  9
$LIMMAX
 10
420.0
 20
297.0
  9
$ORTHOMODE
 70
     0
  9
$REGENMODE
 70
     1
  9
$FILLMODE
 70
     1
  9
$QTEXTMODE
 70
     0
  9
$MIRRTEXT
 70
     0
  9
$LTSCALE
 40
1.0
  9
$ATTMODE
 70
     1
  9
$TEXTSIZE
 40
2.5
  9
$TRACEWID
 40
1.0
  9
$TEXTSTYLE
  7
Standard
  9
$CLAYER
  8
0
  9
$CELTYPE
  6
ByLayer
  9
$CECOLOR
 62
   256
  9
$CELTSCALE
 40
1.0
  9
$DISPSILH
 70
     0
  9
$DIMSCALE
 40
1.0
  9
$DIMASZ
 40
2.5
  9
$DIMEXO
 40
0.625
  9
$DIMDLI
 40
3.75
  9
$DIMRND
 40
0.0
  9
$DIMDLE
 40
0.0
  9
$DIMEXE
 40
1.25
  9
$DIMTP
 40
0.0
  9
$DIMTM
 40
0.0
  9
$DIMTXT
 40
2.5
  9
$DIMCEN
 40
2.5
  9
$DIMTSZ
 40
0.0
  9
$DIMTOL
 70
     0
  9
$DIMLIM
 70
     0
  9
$DIMTIH
 70
     0
  9
$DIMTOH
 70
     0
  9
$DIMSE1
 70
     0
  9
$DIMSE2
 70
     0
  9
$DIMTAD
 70
     1
  9
$DIMZIN
 70
     8
  9
$DIMBLK
  1

  9
$DIMASO
 70
     1
  9
$DIMSHO
 70
     1
  9
$DIMPOST
  1

  9
$DIMAPOST
  1

  9
$DIMALT
 70
     0
  9
$DIMALTD
 70
     3
  9
$DIMALTF
 40
0.03937007874016
  9
$DIMLFAC
 40
1.0
  9
$DIMTOFL
 70
     1
  9
$DIMTVP
 40
0.0
  9
$DIMTIX
 70
     0
  9
$DIMSOXD
 70
     0
  9
$DIMSAH
 70
     0
  9
$DIMBLK1
  1

  9
$DIMBLK2
  1

  9
$DIMSTYLE
  2
ISO-25
  9
$DIMCLRD
 70
     0
  9
$DIMCLRE
 70
     0
  9
$DIMCLRT
 70
     0
  9
$DIMTFAC
 40
1.0
  9
$DIMGAP
 40
0.625
  9
$DIMJUST
 70
     0
  9
$DIMSD1
 70
     0
  9
$DIMSD2
 70
     0
  9
$DIMTOLJ
 70
     0
  9
$DIMTZIN
 70
     8
  9
$DIMALTZ
 70
     0
  9
$DIMALTTZ
 70
     0
  9
$DIMUPT
 70
     0
  9
$DIMDEC
 70
     2
  9
$DIMTDEC
 70
     2
  9
$DIMALTU
 70
     2
  9
$DIMALTTD
 70
     3
  9
$DIMTXSTY
  7
Standard
  9
$DIMAUNIT
 70
     0
  9
$DIMADEC
 70
     0
  9
$DIMALTRND
 40
0.0
  9
$DIMAZIN
 70
     0
  9
$DIMDSEP
 70
    44
  9
$DIMATFIT
 70
     3
  9
$DIMFRAC
 70
     0
  9
$DIMLDRBLK
  1

  9
$DIMLUNIT
 70
     2
  9
$DIMLWD
 70
    -2
  9
$DIMLWE
 70
    -2
  9
$DIMTMOVE
 70
     0
  9
$LUNITS
 70
     2
  9
$LUPREC
 70
     4
  9
$SKETCHINC
 40
1.0
  9
$FILLETRAD
 40
0.0
  9
$AUNITS
 70
     0
  9
$AUPREC
 70
     0
  9
$MENU
  1
.
  9
$ELEVATION
 40
0.0
  9
$PELEVATION
 40
0.0
  9
$THICKNESS
 40
0.0
  9
$LIMCHECK
 70
     0
  9
$CHAMFERA
 40
0.0
  9
$CHAMFERB
 40
0.0
  9
$CHAMFERC
 40
0.0
  9
$CHAMFERD
 40
0.0
  9
$SKPOLY
 70
     0
  9
$TDCREATE
 40
2460312.625706019
  9
$TDUCREATE
 40
2460312.334039352
  9
$TDUPDATE
 40
2460312.634293981
  9
$TDUUPDATE
 40
2460312.342627315
  9
$TDINDWG
 40
0.0082407407
  9
$TDUSRTIMER
 40
0.0082407407
  9
$USRTIMER
 70
     1
  9
$ANGBASE
 50
0.0
  9
$ANGDIR
 70
     0
  9
$PDMODE
 70
     0
  9
$PDSIZE
 40
0.0
  9
$PLINEWID
 40
0.0
  9
$SPLFRAME
 70
     0
  9
$SPLINETYPE
 70
     6
  9
$SPLINESEGS
 70
     8
  9
$HANDSEED
  5
2178
  9
$SURFTAB1
 70
     6
  9
$SURFTAB2
 70
     6
  9
$SURFTYPE
 70
     6
  9
$SURFU
 70
     6
  9
$SURFV
 70
     6
  9
$UCSBASE
  2

  9
$UCSNAME
  2

  9
$UCSORG
 10
0.0
 20
0.0
 30
0.0
  9
$UCSXDIR
 10
1.0
 20
0.0
 30
0.0
  9
$UCSYDIR
 10
0.0
 20
1.0
 30
0.0
  9
$UCSORTHOREF
  2

  9
$UCSORTHOVIEW
 70
     0
  9
$UCSORGTOP
 10
0.0
 20
0.0
 30
0.0
  9
$UCSORGBOTTOM
 10
0.0
 20
0.0
 30
0.0
  9
$UCSORGLEFT
 10
0.0
 20
0.0
 30
0.0
  9
$UCSORGRIGHT
 10
0.0
 20
0.0
 30
0.0
  9
$UCSORGFRONT
 10
0.0
 20
0.0
 30
0.0
  9
$UCSORGBACK
 10
0.0
 20
0.0
 30
0.0
  9
$PUCSBASE
  2

  9
$PUCSNAME
  2

  9
$PUCSORG
 10
0.0
 20
0.0
 30
0.0
  9
$PUCSXDIR
 10
1.0
 20
0.0
 30
0.0
  9
$PUCSYDIR
 10
0.0
 20
1.0
 30
0.0
  9
$PUCSORTHOREF
  2

  9
$PUCSORTHOVIEW
 70
     0
  9
$PUCSORGTOP
 10
0.0
 20
0.0
 30
0.0
  9
$PUCSORGBOTTOM
 10
0.0
 20
0.0
 30
0.0
  9
$PUCSORGLEFT
 10
0.0
 20
0.0
 30
0.0
  9
$PUCSORGRIGHT
 10
0.0
 20
0.0
 30
0.0
  9
$PUCSORGFRONT
 10
0.0
 20
0.0
 30
0.0
  9
$PUCSORGBACK
 10
0.0
 20
0.0
 30
0.0
  9
$USERI1
 70
     0
  9
$USERI2
 70
     0
  9
$USERI3
 70
     0
  9
$USERI4
 70
     0
  9
$USERI5
 70
     0
  9
$USERR1
 40
0.0
  9
$USERR2
 40
0.0
  9
$USERR3
 40
0.0
  9
$USERR4
 40
0.0
  9
$USERR5
 40
0.0
  9
$WORLDVIEW
 70
     1
  9
$SHADEDGE
 70
     3
  9
$SHADEDIF
 70
    70
  9
$TILEMODE
 70
     1
  9
$MAXACTVP
 70
    48
  9
$PINSBASE
 10
0.0
 20
0.0
 30
0.0
  9
$PLIMCHECK
 70
     0
  9
$PEXTMIN
 10
0.0
 20
0.0
 30
0.0
  9
$PEXTMAX
 10
0.0
 20
0.0
 30
0.0
  9
$PLIMMIN
 10
0.0
 20
0.0
  9
$PLIMMAX
 10
12.0
 20
9.0
  9
$UNITMODE
 70
     0
  9
$VISRETAIN
 70
     1
  9
$PLINEGEN
 70
     0
  9
$PSLTSCALE
 70
     1
  9
$TREEDEPTH
 70
  3020
  9
$CMLSTYLE
  2
Standard
  9
$CMLJUST
 70
     0
  9
$CMLSCALE
 40
20.0
  9
$PROXYGRAPHICS
 70
     1
  9
$MEASUREMENT
 70
     1
  9
$CELWEIGHT
370
    -1
  9
$ENDCAPS
280
     0
  9
$JOINSTYLE
280
     0
  9
$LWDISPLAY
290
     0
  9
$INSUNITS
 70
     4
  9
$HYPERLINKBASE
  1

  9
$STYLESHEET
  1

  9
$XEDIT
290
     1
  9
$CEPSNTYPE
380
     0
  9
$PSTYLEMODE
290
     1
  9
$FINGERPRINTGUID
  2
{E22E2D47-196F-7340-A655-47C6E5B5DA73}
  9
$VERSIONGUID
  2
{9A17BD4C-A091-EE4F-B405-8BC171FA1AD7}
  9
$EXTNAMES
290
     1
  9
$PSVPSCALE
 40
0.0
  9
$OLESTARTUP
290
     0
  0
ENDSEC
  0
SECTION
  2
CLASSES
  0
CLASS
  1
ACDBDICTIONARYWDFLT
  2
AcDbDictionaryWithDefault
  3
ObjectDBX Classes
 90
        0
280
     0
281
     0
  0
CLASS
  1
ACDBPLACEHOLDER
  2
AcDbPlaceHolder
  3
ObjectDBX Classes
 90
        0
280
     0
281
     0
  0
CLASS
  1
LAYOUT
  2
AcDbLayout
  3
ObjectDBX Classes
 90
        0
280
     0
281
     0
  0
CLASS
  1
DICTIONARYVAR
  2
AcDbDictionaryVar
  3
ObjectDBX Classes
 90
        0
280
     0
281
     0
  0
CLASS
  1
TABLESTYLE
  2
AcDbTableStyle
  3
ObjectDBX Classes
 90
     4095
280
     0
281
     0
  0
CLASS
  1
MATERIAL
  2
AcDbMaterial
  3
ObjectDBX Classes
 90
     1153
280
     0
281
     0
  0
CLASS
  1
VISUALSTYLE
  2
AcDbVisualStyle
  3
ObjectDBX Classes
 90
     4095
280
     0
281
     0
  0
CLASS
  1
SCALE
  2
AcDbScale
  3
ObjectDBX Classes
 90
     1153
280
     0
281
     0
  0
CLASS
  1
MLEADERSTYLE
  2
AcDbMLeaderStyle
  3
ACDB_MLEADERSTYLE_CLASS
 90
     4095
280
     0
281
     0
  0
CLASS
  1
CELLSTYLEMAP
  2
AcDbCellStyleMap
  3
ObjectDBX Classes
 90
     1152
280
     0
281
     0
  0
CLASS
  1
EXACXREFPANELOBJECT
  2
ExAcXREFPanelObject
  3
EXAC_ESW
 90
    33793
280
     0
281
     0
  0
CLASS
  1
NPOCOLLECTION
  2
AcDbImpNonPersistentObjectsCollection
  3
ObjectDBX Classes
 90
    33921
280
     0
281
     0
  0
CLASS
  1
LAYER_INDEX
  2
AcDbLayerIndex
  3
ObjectDBX Classes
 90
    32768
280
     0
281
     0
  0
CLASS
  1
SPATIAL_INDEX
  2
AcDbSpatialIndex
  3
ObjectDBX Classes
 90
    32768
280
     0
281
     0
  0
CLASS
  1
IDBUFFER
  2
AcDbIdBuffer
  3
ObjectDBX Classes
 90
    32768
280
     0
281
     0
  0
CLASS
  1
ACDBSECTIONVIEWSTYLE
  2
AcDbSectionViewStyle
  3
ObjectDBX Classes
 90
     1025
280
     0
281
     0
  0
CLASS
  1
ACDBDETAILVIEWSTYLE
  2
AcDbDetailViewStyle
  3
ObjectDBX Classes
 90
     1025
280
     0
281
     0
  0
CLASS
  1
XRECORD
  2
AcDbXrecord
  3
ObjectDBX Classes
 90
        0
280
     0
281
     0
  0
ENDSEC
  0
SECTION
  2
TABLES
  0
TABLE
  2
VPORT
  5
8
102
{ACAD_XDICTIONARY
360
2086
102
}
330
0
100
AcDbSymbolTable
 70
     1
  0
VPORT
  5
EA
330
8
100
AcDbSymbolTableRecord
100
AcDbViewportTableRecord
  2
*Active
 70
     0
 10
0.0
 20
0.0
 11
1.0
 21
1.0
 12
0.0032050791234077
 22
6.800056984066138
 13
0.0
 23
0.0
 14
10.0
 24
10.0
 15
10.0
 25
10.0
 16
0.0
 26
0.0
 36
1.0
 17
0.0
 27
0.0
 37
0.0
 40
121.7094713777416
 41
0.9846153846153846
 42
50.0
 43
0.0
 44
0.0
 50
0.0
 51
0.0
 71
     0
 72
  1000
 73
     1
 74
     3
 75
     0
 76
     1
 77
     0
 78
     0
281
     0
 65
     1
110
0.0
120
0.0
130
0.0
111
1.0
121
0.0
131
0.0
112
0.0
122
1.0
132
0.0
 79
     0
146
0.0
1001
ACAD_NAV_VCDISPLAY
1070
     3
  0
ENDTAB
  0
TABLE
  2
LTYPE
  5
5
330
0
100
AcDbSymbolTable
 70
     1
  0
LTYPE
  5
14
330
5
100
AcDbSymbolTableRecord
100
AcDbLinetypeTableRecord
  2
ByBlock
 70
     0
  3

 72
    65
 73
     0
 40
0.0
  0
LTYPE
  5
15
330
5
100
AcDbSymbolTableRecord
100
AcDbLinetypeTableRecord
  2
ByLayer
 70
     0
  3

 72
    65
 73
     0
 40
0.0
  0
LTYPE
  5
16
330
5
100
AcDbSymbolTableRecord
100
AcDbLinetypeTableRecord
  2
Continuous
 70
     0
  3
Solid line
 72
    65
 73
     0
 40
0.0
  0
ENDTAB
  0
TABLE
  2
LAYER
  5
2
102
{ACAD_XDICTIONARY
360
1FF
102
}
330
0
100
AcDbSymbolTable
 70
     1
  0
LAYER
  5
10
102
{ACAD_XDICTIONARY
360
13C
102
}
330
2
100
AcDbSymbolTableRecord
100
AcDbLayerTableRecord
  2
0
 70
     0
 62
     7
  6
Continuous
370
    -3
390
F
  0
ENDTAB
  0
TABLE
  2
STYLE
  5
3
330
0
100
AcDbSymbolTable
 70
     1
  0
STYLE
  5
11
330
3
100
AcDbSymbolTableRecord
100
AcDbTextStyleTableRecord
  2
Standard
 70
     0
 40
0.0
 41
1.0
 50
0.0
 71
     0
 42
2.5
  3
arial.ttf
  4

1001
ACAD
1000
Arial
1071
       34
  0
ENDTAB
  0
TABLE
  2
VIEW
  5
6
330
0
100
AcDbSymbolTable
 70
     0
  0
ENDTAB
  0
TABLE
  2
UCS
  5
7
330
0
100
AcDbSymbolTable
 70
     0
  0
ENDTAB
  0
TABLE
  2
APPID
  5
9
330
0
100
AcDbSymbolTable
 70
     8
  0
APPID
  5
12
330
9
100
AcDbSymbolTableRecord
100
AcDbRegAppTableRecord
  2
ACAD
 70
     0
  0
APPID
  5
9E
330
9
100
AcDbSymbolTableRecord
100
AcDbRegAppTableRecord
  2
ACAD_PSEXT
 70
     0
  0
APPID
  5
133
330
9
100
AcDbSymbolTableRecord
100
AcDbRegAppTableRecord
  2
AcadAnnoPO
 70
     0
  0
APPID
  5
134
330
9
100
AcDbSymbolTableRecord
100
AcDbRegAppTableRecord
  2
AcadAnnotative
 70
     0
  0
APPID
  5
135
330
9
100
AcDbSymbolTableRecord
100
AcDbRegAppTableRecord
  2
ACAD_DSTYLE_DIMJAG
 70
     0
  0
APPID
  5
136
330
9
100
AcDbSymbolTableRecord
100
AcDbRegAppTableRecord
  2
ACAD_DSTYLE_DIMTALN
 70
     0
  0
APPID
  5
165
330
9
100
AcDbSymbolTableRecord
100
AcDbRegAppTableRecord
  2
ACAD_MLEADERVER
 70
     0
  0
APPID
  5
217
330
9
100
AcDbSymbolTableRecord
100
AcDbRegAppTableRecord
  2
ACAD_NAV_VCDISPLAY
 70
     0
  0
ENDTAB
  0
TABLE
  2
DIMSTYLE
  5
A
330
0
100
AcDbSymbolTable
 70
     1
100
AcDbDimStyleTable
 71
     0
  0
DIMSTYLE
105
27
330
A
100
AcDbSymbolTableRecord
100
AcDbDimStyleTableRecord
  2
ISO-25
 70
     0
 41
2.5
 42
0.625
 43
3.75
 44
1.25
 73
     0
 74
     0
 77
     1
 78
     8
140
2.5
141
2.5
143
0.03937007874016
147
0.625
171
     3
172
     1
271
     2
272
     2
274
     3
278
    44
283
     0
284
     8
340
11
  0
ENDTAB
  0
TABLE
  2
BLOCK_RECORD
  5
1
330
0
100
AcDbSymbolTable
 70
     7
  0
BLOCK_RECORD
  5
1F
102
{ACAD_XDICTIONARY
360
1CE
102
}
330
1
100
AcDbSymbolTableRecord
100
AcDbBlockTableRecord
  2
*Model_Space
340
22
  0
BLOCK_RECORD
  5
D2
102
{ACAD_XDICTIONARY
360
2039
102
}
330
1
100
AcDbSymbolTableRecord
100
AcDbBlockTableRecord
  2
*Paper_Space
340
D3
  0
BLOCK_RECORD
  5
D6
102
{ACAD_XDICTIONARY
360
203B
102
}
330
1
100
AcDbSymbolTableRecord
100
AcDbBlockTableRecord
  2
*Paper_Space0
340
D7
  0
BLOCK_RECORD
  5
1F61
330
1
100
AcDbSymbolTableRecord
100
AcDbBlockTableRecord
  2
CCS30-C-Front
340
0
102
{BLKREFS
331
202F
102
}
  0
BLOCK_RECORD
  5
1F7E
330
1
100
AcDbSymbolTableRecord
100
AcDbBlockTableRecord
  2
CCS30-C-Left
340
0
102
{BLKREFS
331
2030
102
}
  0
BLOCK_RECORD
  5
1F9B
330
1
100
AcDbSymbolTableRecord
100
AcDbBlockTableRecord
  2
CCS30-C-Right
340
0
102
{BLKREFS
331
2031
102
}
  0
BLOCK_RECORD
  5
1FB8
330
1
100
AcDbSymbolTableRecord
100
AcDbBlockTableRecord
  2
CCS30-C-Top
340
0
102
{BLKREFS
331
2032
102
}
  0
BLOCK_RECORD
  5
1FF2
330
1
100
AcDbSymbolTableRecord
100
AcDbBlockTableRecord
  2
CCS30-C-Bottom
340
0
102
{BLKREFS
331
2033
102
}
  0
BLOCK_RECORD
  5
1FF9
330
1
100
AcDbSymbolTableRecord
100
AcDbBlockTableRecord
  2
CCS30-C-ISO
340
0
102
{BLKREFS
331
2034
102
}
  0
ENDTAB
  0
ENDSEC
  0
SECTION
  2
BLOCKS
  0
BLOCK
  5
20
330
1F
100
AcDbEntity
  8
0
100
AcDbBlockBegin
  2
*Model_Space
 70
     0
 10
0.0
 20
0.0
 30
0.0
  3
*Model_Space
  1

  0
ENDBLK
  5
21
330
1F
100
AcDbEntity
  8
0
100
AcDbBlockEnd
  0
BLOCK
  5
D4
330
D2
100
AcDbEntity
 67
     1
  8
0
100
AcDbBlockBegin
  2
*Paper_Space
 70
     0
 10
0.0
 20
0.0
 30
0.0
  3
*Paper_Space
  1

  0
ENDBLK
  5
D5
330
D2
100
AcDbEntity
 67
     1
  8
0
100
AcDbBlockEnd
  0
BLOCK
  5
D8
330
D6
100
AcDbEntity
 67
     1
  8
0
100
AcDbBlockBegin
  2
*Paper_Space0
 70
     0
 10
0.0
 20
0.0
 30
0.0
  3
*Paper_Space0
  1

  0
ENDBLK
  5
D9
330
D6
100
AcDbEntity
 67
     1
  8
0
100
AcDbBlockEnd
  0
BLOCK
  5
1F62
330
1F61
100
AcDbEntity
  8
0
100
AcDbBlockBegin
  2
CCS30-C-Front
 70
     0
 10
0.0
 20
0.0
 30
0.0
  3
CCS30-C-Front
  1

  0
LINE
  5
1F64
330
1F61
100
AcDbEntity
  8
0
100
AcDbLine
 10
14.0
 20
0.0
 30
0.0
 11
-13.99999999999999
 21
0.0
 31
0.0
  0
LINE
  5
1F65
330
1F61
100
AcDbEntity
  8
0
100
AcDbLine
 10
-15.0
 20
0.9999999999999943
 30
0.0
 11
15.0
 21
1.000000000000007
 31
0.0
  0
LINE
  5
1F66
330
1F61
100
AcDbEntity
  8
0
100
AcDbLine
 10
14.99999999999999
 20
24.00000000000001
 30
0.0
 11
-15.00000000000001
 21
23.99999999999999
 31
0.0
  0
LINE
  5
1F67
330
1F61
100
AcDbEntity
  8
0
100
AcDbLine
 10
-14.00000000000001
 20
25.0
 30
0.0
 11
13.99999999999999
 21
25.00000000000001
 31
0.0
  0
LINE
  5
1F68
330
1F61
100
AcDbEntity
  8
0
100
AcDbLine
 10
-13.99999999999999
 20
0.0
 30
0.0
 11
-15.0
 21
0.9999999999999943
 31
0.0
  0
LINE
  5
1F69
330
1F61
100
AcDbEntity
  8
0
100
AcDbLine
 10
14.0
 20
0.0
 30
0.0
 11
15.0
 21
1.000000000000007
 31
0.0
  0
LINE
  5
1F6A
330
1F61
100
AcDbEntity
  8
0
100
AcDbLine
 10
13.99999999999999
 20
25.00000000000001
 30
0.0
 11
15.0
 21
24.00000000000001
 31
0.0
  0
LINE
  5
1F6B
330
1F61
100
AcDbEntity
  8
0
100
AcDbLine
 10
-14.00000000000001
 20
25.0
 30
0.0
 11
-15.00000000000001
 21
23.99999999999999
 31
0.0
  0
SPLINE
  5
1F6C
330
1F61
100
AcDbEntity
  8
0
100
AcDbSpline
210
0.0
220
0.0
230
1.0
 70
     8
 71
     3
 72
    14
 73
    10
 74
     0
 42
0.000000001
 43
0.0000000001
 40
0.0
 40
0.0
 40
0.0
 40
0.0
 40
0.1346815045028191
 40
0.1346815045028191
 40
0.2693630090056383
 40
0.2693630090056383
 40
0.3652303148484675
 40
0.3652303148484675
 40
0.4610976206486728
 40
0.4610976206486728
 40
0.4610976206912966
 40
0.4610976206912966
 10
14.77294825009551
 20
9.864051749904504
 30
0.0
 10
14.77294825009551
 20
10.31299009824723
 30
0.0
 10
14.78425765767774
 20
10.80013803683293
 30
0.0
 10
14.83048506987269
 20
11.71323444667622
 30
0.0
 10
14.86519030102777
 20
12.13904335231893
 30
0.0
 10
14.92372326207237
 20
12.71726645387155
 30
0.0
 10
14.95027571531111
 20
12.93774505230558
 30
0.0
 10
14.98876388485836
 20
13.23623460185027
 30
0.0
 10
14.99999999999
 20
13.31395526210096
 30
0.0
 10
15.0
 20
13.31395526217006
 30
0.0
  0
SPLINE
  5
1F6D
330
1F61
100
AcDbEntity
  8
0
100
AcDbSpline
210
0.0
220
0.0
230
1.0
 70
     8
 71
     3
 72
    16
 73
    12
 74
     0
 42
0.000000001
 43
0.0000000001
 40
1.416346605143562
 40
1.416346605143562
 40
1.416346605150187
 40
1.416346605150187
 40
1.465473317541548
 40
1.465473317541548
 40
1.514600029939534
 40
1.514600029939534
 40
1.612853454735505
 40
1.612853454735505
 40
1.761675711820018
 40
1.761675711820018
 40
1.910497968904532
 40
1.910497968904532
 40
1.910497968904532
 40
1.910497968904532
 10
15.0
 20
5.960044737829958
 30
0.0
 10
14.99999999999925
 20
5.960044737836687
 30
0.0
 10
14.99725655731956
 20
5.984990734371723
 30
0.0
 10
14.9868589174875
 20
6.081711554913661
 30
0.0
 10
14.97922251742037
 20
6.153420394820777
 30
0.0
 10
14.951618732997
 20
6.422403504847164
 30
0.0
 10
14.92701749287886
 20
6.675607738019668
 30
0.0
 10
14.87083647565498
 20
7.330715247271517
 30
0.0
 10
14.83574040386096
 20
7.813286406410174
 30
0.0
 10
14.78655054877538
 20
8.831723027542754
 30
0.0
 10
14.77294825009551
 20
9.367977559622794
 30
0.0
 10
14.77294825009551
 20
9.864051749904504
 30
0.0
  0
SPLINE
  5
1F6E
330
1F61
100
AcDbEntity
  8
0
100
AcDbSpline
210
0.0
220
0.0
230
1.0
 70
    11
 71
     3
 72
    42
 73
    38
 74
     0
 42
0.000000001
 43
0.0000000001
 40
0.0
 40
0.0
 40
0.0
 40
0.0
 40
0.1346815045028191
 40
0.1346815045028191
 40
0.2693630090056382
 40
0.2693630090056382
 40
0.3652303148484673
 40
0.3652303148484673
 40
0.4610976206912964
 40
0.4610976206912964
 40
0.5569649265341255
 40
0.5569649265341255
 40
0.6528322323769547
 40
0.6528322323769547
 40
0.7875137368797738
 40
0.7875137368797738
 40
0.9221952413825929
 40
0.9221952413825929
 40
1.071017498467105
 40
1.071017498467105
 40
1.219839755551618
 40
1.219839755551618
 40
1.31809318034759
 40
1.31809318034759
 40
1.367219892745576
 40
1.367219892745576
 40
1.416346605143562
 40
1.416346605143562
 40
1.465473317541547
 40
1.465473317541547
 40
1.514600029939533
 40
1.514600029939533
 40
1.612853454735505
 40
1.612853454735505
 40
1.761675711820018
 40
1.761675711820018
 40
1.910497968904531
 40
1.910497968904531
 40
1.910497968904531
 40
1.910497968904531
 10
8.607574254675444
 20
9.864051749904501
 30
0.0
 10
8.607574254675444
 20
10.31299009824723
 30
0.0
 10
8.658685329439668
 20
10.80013803683293
 30
0.0
 10
8.893367777864444
 20
11.71323444667622
 30
0.0
 10
9.07712830824537
 20
12.13904335231893
 30
0.0
 10
9.474057860545903
 20
12.71726645387155
 30
0.0
 10
9.682488642531897
 20
12.93774505230558
 30
0.0
 10
10.13596069147079
 20
13.23623460191663
 30
0.0
 10
10.38064031094638
 20
13.31395526217006
 30
0.0
 10
10.83256312465004
 20
13.31395526217006
 30
0.0
 10
11.06135247771604
 20
13.23623460191663
 30
0.0
 10
11.46039403527819
 20
12.93774505230558
 30
0.0
 10
11.63127397777969
 20
12.71726645387155
 30
0.0
 10
11.94542542272509
 20
12.13904335231893
 30
0.0
 10
12.08010534452121
 20
11.71323444667622
 30
0.0
 10
12.24941235966648
 20
10.80013803683293
 30
0.0
 10
12.2845295168455
 20
10.31299009824723
 30
0.0
 10
12.2845295168455
 20
9.367977559622794
 30
0.0
 10
12.24202089501617
 20
8.831723027542754
 30
0.0
 10
12.05968522311496
 20
7.813286406410176
 30
0.0
 10
11.92036854572057
 20
7.330715247271521
 30
0.0
 10
11.60940157032475
 20
6.675607738019669
 30
0.0
 10
11.44814888864561
 20
6.422403504847161
 30
0.0
 10
11.15940221991898
 20
6.153420394820775
 30
0.0
 10
11.05534299700525
 20
6.081711554913661
 30
0.0
 10
10.83685269208419
 20
5.984990734365203
 30
0.0
 10
10.72239448937827
 20
5.960044737829957
 30
0.0
 10
10.49080894621815
 20
5.960044737829957
 30
0.0
 10
10.37247092966696
 20
5.984990734365202
 30
0.0
 10
10.13927614147774
 20
6.081711554913661
 30
0.0
 10
10.02441741802135
 20
6.153420394820775
 30
0.0
 10
9.696633102990379
 20
6.422403504847161
 30
0.0
 10
9.500589013884976
 20
6.675607738019665
 30
0.0
 10
9.110170081983227
 20
7.330715247271514
 30
0.0
 10
8.921220063871706
 20
7.81328640641017
 30
0.0
 10
8.669319431777287
 20
8.831723027542748
 30
0.0
 10
8.607574254675444
 20
9.36797755962279
 30
0.0
 10
8.607574254675444
 20
9.864051749904501
 30
0.0
  0
SPLINE
  5
1F6F
330
1F61
100
AcDbEntity
  8
0
100
AcDbSpline
210
0.0
220
0.0
230
1.0
 70
    11
 71
     3
 72
    42
 73
    38
 74
     0
 42
0.000000001
 43
0.0000000001
 40
0.0
 40
0.0
 40
0.0
 40
0.0
 40
0.1346815045028191
 40
0.1346815045028191
 40
0.2693630090056383
 40
0.2693630090056383
 40
0.3652303148484675
 40
0.3652303148484675
 40
0.4610976206912966
 40
0.4610976206912966
 40
0.5569649265341258
 40
0.5569649265341258
 40
0.652832232376955
 40
0.652832232376955
 40
0.7875137368797742
 40
0.7875137368797742
 40
0.9221952413825933
 40
0.9221952413825933
 40
1.071017498467106
 40
1.071017498467106
 40
1.219839755551619
 40
1.219839755551619
 40
1.31809318034759
 40
1.31809318034759
 40
1.367219892745576
 40
1.367219892745576
 40
1.416346605143562
 40
1.416346605143562
 40
1.465473317541548
 40
1.465473317541548
 40
1.514600029939534
 40
1.514600029939534
 40
1.612853454735505
 40
1.612853454735505
 40
1.761675711820018
 40
1.761675711820018
 40
1.910497968904532
 40
1.910497968904532
 40
1.910497968904532
 40
1.910497968904532
 10
-2.600000000000009
 20
9.864051749904497
 30
0.0
 10
-2.600000000000009
 20
10.31299009824723
 30
0.0
 10
-2.539027432463216
 20
10.80013803683293
 30
0.0
 10
-2.253363743244923
 20
11.71323444667622
 30
0.0
 10
-2.028192340106425
 20
12.13904335231892
 30
0.0
 10
-1.525382144980929
 20
12.71726645387155
 30
0.0
 10
-1.257168959519041
 20
12.93774505230557
 30
0.0
 10
-0.6543508073083473
 20
13.23623460191662
 30
0.0
 10
-0.319557686142767
 20
13.31395526217006
 30
0.0
 10
0.3195576861427606
 20
13.31395526217006
 30
0.0
 10
0.6543508073083406
 20
13.23623460191663
 30
0.0
 10
1.257168959519035
 20
12.93774505230558
 30
0.0
 10
1.525382144980923
 20
12.71726645387155
 30
0.0
 10
2.02819234010642
 20
12.13904335231892
 30
0.0
 10
2.253363743244918
 20
11.71323444667622
 30
0.0
 10
2.539027432463213
 20
10.80013803683293
 30
0.0
 10
2.600000000000007
 20
10.31299009824723
 30
0.0
 10
2.600000000000007
 20
9.367977559622792
 30
0.0
 10
2.526281431811317
 20
8.831723027542754
 30
0.0
 10
2.219229996618627
 20
7.813286406410177
 30
0.0
 10
1.987110390188698
 20
7.33071524727152
 30
0.0
 10
1.491155658909905
 20
6.675607738019668
 30
0.0
 10
1.238508689392105
 20
6.422403504847162
 30
0.0
 10
0.8025554499654896
 20
6.153420394820773
 30
0.0
 10
0.6477570855637448
 20
6.08171155491366
 30
0.0
 10
0.3283674932645852
 20
5.984990734365201
 30
0.0
 10
0.1637557079932873
 20
5.960044737829955
 30
0.0
 10
-0.1637557079932849
 20
5.960044737829953
 30
0.0
 10
-0.3283674932645831
 20
5.984990734365197
 30
0.0
 10
-0.6477570855637418
 20
6.081711554913656
 30
0.0
 10
-0.8025554499654854
 20
6.153420394820772
 30
0.0
 10
-1.2385086893921
 20
6.422403504847158
 30
0.0
 10
-1.491155658909901
 20
6.675607738019663
 30
0.0
 10
-1.987110390188696
 20
7.330715247271512
 30
0.0
 10
-2.219229996618627
 20
7.813286406410169
 30
0.0
 10
-2.52628143181132
 20
8.831723027542746
 30
0.0
 10
-2.600000000000009
 20
9.367977559622786
 30
0.0
 10
-2.600000000000009
 20
9.864051749904497
 30
0.0
  0
SPLINE
  5
1F70
330
1F61
100
AcDbEntity
  8
0
100
AcDbSpline
210
0.0
220
0.0
230
1.0
 70
    11
 71
     3
 72
    42
 73
    38
 74
     0
 42
0.000000001
 43
0.0000000001
 40
0.0
 40
0.0
 40
0.0
 40
0.0
 40
0.1346815045028191
 40
0.1346815045028191
 40
0.2693630090056382
 40
0.2693630090056382
 40
0.3652303148484673
 40
0.3652303148484673
 40
0.4610976206912964
 40
0.4610976206912964
 40
0.5569649265341257
 40
0.5569649265341257
 40
0.652832232376955
 40
0.652832232376955
 40
0.787513736879774
 40
0.787513736879774
 40
0.9221952413825931
 40
0.9221952413825931
 40
1.071017498467106
 40
1.071017498467106
 40
1.219839755551618
 40
1.219839755551618
 40
1.31809318034759
 40
1.31809318034759
 40
1.367219892745576
 40
1.367219892745576
 40
1.416346605143562
 40
1.416346605143562
 40
1.465473317541547
 40
1.465473317541547
 40
1.514600029939533
 40
1.514600029939533
 40
1.612853454735505
 40
1.612853454735505
 40
1.761675711820018
 40
1.761675711820018
 40
1.910497968904531
 40
1.910497968904531
 40
1.910497968904531
 40
1.910497968904531
 10
-12.2845295168455
 20
9.86405174990449
 30
0.0
 10
-12.2845295168455
 20
10.31299009824722
 30
0.0
 10
-12.24941235966649
 20
10.80013803683292
 30
0.0
 10
-12.08010534452122
 20
11.71323444667621
 30
0.0
 10
-11.9454254227251
 20
12.13904335231892
 30
0.0
 10
-11.63127397777969
 20
12.71726645387154
 30
0.0
 10
-11.4603940352782
 20
12.93774505230557
 30
0.0
 10
-11.06135247771604
 20
13.23623460191662
 30
0.0
 10
-10.83256312465004
 20
13.31395526217005
 30
0.0
 10
-10.38064031094638
 20
13.31395526217006
 30
0.0
 10
-10.13596069147079
 20
13.23623460191662
 30
0.0
 10
-9.682488642531904
 20
12.93774505230557
 30
0.0
 10
-9.47405786054591
 20
12.71726645387154
 30
0.0
 10
-9.077128308245374
 20
12.13904335231892
 30
0.0
 10
-8.893367777864447
 20
11.71323444667621
 30
0.0
 10
-8.658685329439672
 20
10.80013803683292
 30
0.0
 10
-8.607574254675448
 20
10.31299009824723
 30
0.0
 10
-8.607574254675448
 20
9.367977559622783
 30
0.0
 10
-8.669319431777292
 20
8.831723027542745
 30
0.0
 10
-8.921220063871707
 20
7.813286406410167
 30
0.0
 10
-9.110170081983227
 20
7.330715247271512
 30
0.0
 10
-9.500589013884976
 20
6.67560773801966
 30
0.0
 10
-9.696633102990379
 20
6.422403504847151
 30
0.0
 10
-10.02441741802136
 20
6.153420394820766
 30
0.0
 10
-10.13927614147774
 20
6.081711554913653
 30
0.0
 10
-10.37247092966696
 20
5.984990734365194
 30
0.0
 10
-10.49080894621815
 20
5.960044737829948
 30
0.0
 10
-10.72239448937827
 20
5.960044737829948
 30
0.0
 10
-10.8368526920842
 20
5.98499073436519
 30
0.0
 10
-11.05534299700526
 20
6.08171155491365
 30
0.0
 10
-11.15940221991899
 20
6.153420394820766
 30
0.0
 10
-11.44814888864561
 20
6.422403504847152
 30
0.0
 10
-11.60940157032475
 20
6.675607738019656
 30
0.0
 10
-11.92036854572058
 20
7.330715247271505
 30
0.0
 10
-12.05968522311496
 20
7.813286406410161
 30
0.0
 10
-12.24202089501618
 20
8.831723027542739
 30
0.0
 10
-12.2845295168455
 20
9.367977559622779
 30
0.0
 10
-12.2845295168455
 20
9.86405174990449
 30
0.0
  0
SPLINE
  5
1F71
330
1F61
100
AcDbEntity
  8
0
100
AcDbSpline
210
0.0
220
0.0
230
1.0
 70
     8
 71
     3
 72
    24
 73
    20
 74
     0
 42
0.000000001
 43
0.0000000001
 40
0.4610976206912966
 40
0.4610976206912966
 40
0.4610976206912967
 40
0.4610976206912967
 40
0.5569649265341258
 40
0.5569649265341258
 40
0.652832232376955
 40
0.652832232376955
 40
0.7875137368797742
 40
0.7875137368797742
 40
0.9221952413825933
 40
0.9221952413825933
 40
1.071017498467106
 40
1.071017498467106
 40
1.219839755551619
 40
1.219839755551619
 40
1.31809318034759
 40
1.31809318034759
 40
1.367219892745576
 40
1.367219892745576
 40
1.416346605143562
 40
1.416346605143562
 40
1.416346605143562
 40
1.416346605143562
 10
-15.0
 20
13.31395526217005
 30
0.0
 10
-15.0
 20
13.31395526217005
 30
0.0
 10
-14.98876388486692
 20
13.23623460191662
 30
0.0
 10
-14.95027571531111
 20
12.93774505230557
 30
0.0
 10
-14.92372326207238
 20
12.71726645387155
 30
0.0
 10
-14.86519030102777
 20
12.13904335231892
 30
0.0
 10
-14.8304850698727
 20
11.71323444667621
 30
0.0
 10
-14.78425765767775
 20
10.80013803683292
 30
0.0
 10
-14.77294825009551
 20
10.31299009824722
 30
0.0
 10
-14.77294825009551
 20
9.367977559622781
 30
0.0
 10
-14.78655054877538
 20
8.831723027542743
 30
0.0
 10
-14.83574040386097
 20
7.813286406410167
 30
0.0
 10
-14.87083647565499
 20
7.330715247271511
 30
0.0
 10
-14.92701749287887
 20
6.675607738019659
 30
0.0
 10
-14.951618732997
 20
6.422403504847153
 30
0.0
 10
-14.97922251742037
 20
6.153420394820765
 30
0.0
 10
-14.98685891748751
 20
6.081711554913651
 30
0.0
 10
-14.99725655732027
 20
5.984990734365192
 30
0.0
 10
-15.0
 20
5.960044737829946
 30
0.0
 10
-15.0
 20
5.960044737829946
 30
0.0
  0
ELLIPSE
  5
1F72
330
1F61
100
AcDbEntity
  8
0
100
AcDbEllipse
 10
7.742503453452651
 20
13.68744660940673
 30
0.0
 11
-3.510935297989348
 21
-2.482606157515214
 31
0.0
210
0.0
220
0.0
230
1.0
 40
0.5000000000000007
 41
1.580907323852406
 42
2.061022495670922
  0
ELLIPSE
  5
1F73
330
1F61
100
AcDbEntity
  8
0
100
AcDbEllipse
 10
-0.0000000000000101
 20
24.63699999999998
 30
0.0
 11
9.893419752286947
 21
-11.73542361185027
 31
0.0
210
0.0
220
0.0
230
1.0
 40
0.267949192431123
 41
6.165420509955017
 42
6.381579433062783
  0
SPLINE
  5
1F74
330
1F61
100
AcDbEntity
  8
0
100
AcDbSpline
210
0.0
220
0.0
230
1.0
 70
     8
 71
     3
 72
    14
 73
    10
 74
     0
 42
0.000000001
 43
0.0000000001
 40
2.914838576927343
 40
2.914838576927343
 40
2.914838576927343
 40
2.914838576927343
 40
3.010669292702559
 40
3.010669292702559
 40
3.14227691233024
 40
3.14227691233024
 40
3.273884531957922
 40
3.273884531957922
 40
3.369715247733149
 40
3.369715247733149
 40
3.369715247733149
 40
3.369715247733149
 10
-2.264021999256486
 20
11.61641628742708
 30
0.0
 10
-1.985723738496967
 20
11.45812655070518
 30
0.0
 10
-1.676819934965747
 20
11.31802088966495
 30
0.0
 10
-0.909786191858004
 20
11.07218980839211
 30
0.0
 10
-0.438692065425607
 20
11.00044084089784
 30
0.0
 10
0.4386920654256022
 20
11.00044084089784
 30
0.0
 10
0.9097861918580017
 20
11.07218980839211
 30
0.0
 10
1.676819934965779
 20
11.31802088966497
 30
0.0
 10
1.985723738497031
 20
11.45812655070521
 30
0.0
 10
2.264021999256573
 20
11.61641628742713
 30
0.0
  0
ELLIPSE
  5
1F75
330
1F61
100
AcDbEntity
  8
0
100
AcDbEllipse
 10
-7.742503453452657
 20
13.68744660940672
 30
0.0
 11
-3.51093529798922
 21
2.482606157515392
 31
0.0
210
0.0
220
0.0
230
0.9999999999999998
 40
0.5000000000000007
 41
1.080570157918991
 42
1.56068532973742
  0
ELLIPSE
  5
1F76
330
1F61
100
AcDbEntity
  8
0
100
AcDbEllipse
 10
-0.0000000000000108
 20
24.63699999999998
 30
0.0
 11
-9.893419752286934
 21
-11.73542361185028
 31
0.0
210
0.0
220
0.0
230
1.0
 40
0.267949192431123
 41
6.18479118129639
 42
6.400950104404154
  0
ELLIPSE
  5
1F77
330
1F61
100
AcDbEntity
  8
0
100
AcDbEllipse
 10
8.592503453452653
 20
12.4853650813896
 30
0.0
 11
-2.122891110412169
 21
-1.501110699892925
 31
0.0
210
0.0
220
0.0
230
1.0
 40
0.5000000000000006
 41
1.291074982388332
 42
2.640914128931408
  0
ELLIPSE
  5
1F78
330
1F61
100
AcDbEntity
  8
0
100
AcDbEllipse
 10
-0.0000000000000034
 20
12.4853650813896
 30
0.0
 11
-2.600000000000008
 21
0.0000000000001872
 31
0.0
210
0.0
220
0.0
230
1.0
 40
0.7071067811865483
 41
0.5063738323175793
 42
2.635218821272687
  0
ELLIPSE
  5
1F79
330
1F61
100
AcDbEntity
  8
0
100
AcDbEllipse
 10
-8.592503453452655
 20
12.4853650813896
 30
0.0
 11
-2.122891110412093
 21
1.501110699893033
 31
0.0
210
0.0
220
0.0
230
1.0
 40
0.5000000000000007
 41
0.5006785246589223
 42
1.850517671201767
  0
LINE
  5
1F7A
330
1F61
100
AcDbEntity
  8
0
100
AcDbLine
 10
-15.0
 20
0.9999999999999953
 30
0.0
 11
-15.0
 21
5.960044737829946
 31
0.0
  0
LINE
  5
1F7B
330
1F61
100
AcDbEntity
  8
0
100
AcDbLine
 10
-15.0
 20
13.31395526217005
 30
0.0
 11
-15.00000000000001
 21
23.99999999999999
 31
0.0
  0
LINE
  5
1F7C
330
1F61
100
AcDbEntity
  8
0
100
AcDbLine
 10
15.0
 20
1.000000000000006
 30
0.0
 11
15.0
 21
5.960044737829958
 31
0.0
  0
LINE
  5
1F7D
330
1F61
100
AcDbEntity
  8
0
100
AcDbLine
 10
15.0
 20
13.31395526217006
 30
0.0
 11
14.99999999999999
 21
24.00000000000001
 31
0.0
  0
ENDBLK
  5
1F63
330
1F61
100
AcDbEntity
  8
0
100
AcDbBlockEnd
  0
BLOCK
  5
1F7F
330
1F7E
100
AcDbEntity
  8
0
100
AcDbBlockBegin
  2
CCS30-C-Left
 70
     0
 10
0.0
 20
0.0
 30
0.0
  3
CCS30-C-Left
  1

  0
LINE
  5
1F81
330
1F7E
100
AcDbEntity
  8
0
100
AcDbLine
 10
14.0
 20
0.0
 30
0.0
 11
-13.99999999999999
 21
0.0
 31
0.0
  0
LINE
  5
1F82
330
1F7E
100
AcDbEntity
  8
0
100
AcDbLine
 10
-15.0
 20
0.9999999999999992
 30
0.0
 11
15.0
 21
1.000000000000002
 31
0.0
  0
LINE
  5
1F83
330
1F7E
100
AcDbEntity
  8
0
100
AcDbLine
 10
15.0
 20
24.0
 30
0.0
 11
-15.0
 21
24.0
 31
0.0
  0
LINE
  5
1F84
330
1F7E
100
AcDbEntity
  8
0
100
AcDbLine
 10
-14.0
 20
25.0
 30
0.0
 11
14.0
 21
25.0
 31
0.0
  0
LINE
  5
1F85
330
1F7E
100
AcDbEntity
  8
0
100
AcDbLine
 10
-13.99999999999999
 20
0.0
 30
0.0
 11
-15.0
 21
0.9999999999999992
 31
0.0
  0
LINE
  5
1F86
330
1F7E
100
AcDbEntity
  8
0
100
AcDbLine
 10
14.0
 20
0.0
 30
0.0
 11
15.0
 21
1.000000000000002
 31
0.0
  0
LINE
  5
1F87
330
1F7E
100
AcDbEntity
  8
0
100
AcDbLine
 10
14.0
 20
25.0
 30
0.0
 11
15.0
 21
24.0
 31
0.0
  0
LINE
  5
1F88
330
1F7E
100
AcDbEntity
  8
0
100
AcDbLine
 10
-14.0
 20
25.0
 30
0.0
 11
-15.0
 21
24.0
 31
0.0
  0
SPLINE
  5
1F89
330
1F7E
100
AcDbEntity
  8
0
100
AcDbSpline
210
0.0
220
0.0
230
1.0
 70
     8
 71
     3
 72
    14
 73
    10
 74
     0
 42
0.000000001
 43
0.0000000001
 40
0.0
 40
0.0
 40
0.0
 40
0.0
 40
0.1346815045028191
 40
0.1346815045028191
 40
0.2693630090056383
 40
0.2693630090056383
 40
0.3652303148484675
 40
0.3652303148484675
 40
0.4610976206486728
 40
0.4610976206486728
 40
0.4610976206912966
 40
0.4610976206912966
 10
14.77294825009551
 20
9.864051749904497
 30
0.0
 10
14.77294825009551
 20
10.31299009824723
 30
0.0
 10
14.78425765767775
 20
10.80013803683293
 30
0.0
 10
14.83048506987269
 20
11.71323444667622
 30
0.0
 10
14.86519030102777
 20
12.13904335231892
 30
0.0
 10
14.92372326207237
 20
12.71726645387155
 30
0.0
 10
14.95027571531111
 20
12.93774505230557
 30
0.0
 10
14.98876388485836
 20
13.23623460185027
 30
0.0
 10
14.99999999999001
 20
13.31395526210095
 30
0.0
 10
15.0
 20
13.31395526217006
 30
0.0
  0
SPLINE
  5
1F8A
330
1F7E
100
AcDbEntity
  8
0
100
AcDbSpline
210
0.0
220
0.0
230
1.0
 70
     8
 71
     3
 72
    16
 73
    12
 74
     0
 42
0.000000001
 43
0.0000000001
 40
1.416346605143562
 40
1.416346605143562
 40
1.416346605150186
 40
1.416346605150186
 40
1.465473317541548
 40
1.465473317541548
 40
1.514600029939534
 40
1.514600029939534
 40
1.612853454735505
 40
1.612853454735505
 40
1.761675711820018
 40
1.761675711820018
 40
1.910497968904532
 40
1.910497968904532
 40
1.910497968904532
 40
1.910497968904532
 10
15.0
 20
5.960044737829955
 30
0.0
 10
14.99999999999926
 20
5.960044737836681
 30
0.0
 10
14.99725655731957
 20
5.984990734371718
 30
0.0
 10
14.98685891748751
 20
6.081711554913656
 30
0.0
 10
14.97922251742037
 20
6.153420394820772
 30
0.0
 10
14.951618732997
 20
6.422403504847158
 30
0.0
 10
14.92701749287887
 20
6.675607738019663
 30
0.0
 10
14.87083647565499
 20
7.330715247271512
 30
0.0
 10
14.83574040386097
 20
7.813286406410169
 30
0.0
 10
14.78655054877538
 20
8.831723027542746
 30
0.0
 10
14.77294825009551
 20
9.367977559622786
 30
0.0
 10
14.77294825009551
 20
9.864051749904497
 30
0.0
  0
SPLINE
  5
1F8B
330
1F7E
100
AcDbEntity
  8
0
100
AcDbSpline
210
0.0
220
0.0
230
1.0
 70
    11
 71
     3
 72
    42
 73
    38
 74
     0
 42
0.000000001
 43
0.0000000001
 40
0.0
 40
0.0
 40
0.0
 40
0.0
 40
0.1346815045028191
 40
0.1346815045028191
 40
0.2693630090056382
 40
0.2693630090056382
 40
0.3652303148484673
 40
0.3652303148484673
 40
0.4610976206912964
 40
0.4610976206912964
 40
0.5569649265341257
 40
0.5569649265341257
 40
0.652832232376955
 40
0.652832232376955
 40
0.787513736879774
 40
0.787513736879774
 40
0.9221952413825931
 40
0.9221952413825931
 40
1.071017498467106
 40
1.071017498467106
 40
1.219839755551618
 40
1.219839755551618
 40
1.31809318034759
 40
1.31809318034759
 40
1.367219892745576
 40
1.367219892745576
 40
1.416346605143562
 40
1.416346605143562
 40
1.465473317541547
 40
1.465473317541547
 40
1.514600029939533
 40
1.514600029939533
 40
1.612853454735505
 40
1.612853454735505
 40
1.761675711820018
 40
1.761675711820018
 40
1.910497968904531
 40
1.910497968904531
 40
1.910497968904531
 40
1.910497968904531
 10
8.607574254675448
 20
9.86405174990449
 30
0.0
 10
8.607574254675448
 20
10.31299009824722
 30
0.0
 10
8.658685329439672
 20
10.80013803683292
 30
0.0
 10
8.893367777864447
 20
11.71323444667621
 30
0.0
 10
9.077128308245374
 20
12.13904335231892
 30
0.0
 10
9.474057860545908
 20
12.71726645387154
 30
0.0
 10
9.682488642531906
 20
12.93774505230557
 30
0.0
 10
10.1359606914708
 20
13.23623460191662
 30
0.0
 10
10.38064031094638
 20
13.31395526217005
 30
0.0
 10
10.83256312465004
 20
13.31395526217005
 30
0.0
 10
11.06135247771604
 20
13.23623460191662
 30
0.0
 10
11.4603940352782
 20
12.93774505230557
 30
0.0
 10
11.63127397777969
 20
12.71726645387154
 30
0.0
 10
11.9454254227251
 20
12.13904335231892
 30
0.0
 10
12.08010534452122
 20
11.71323444667621
 30
0.0
 10
12.24941235966648
 20
10.80013803683292
 30
0.0
 10
12.2845295168455
 20
10.31299009824723
 30
0.0
 10
12.2845295168455
 20
9.367977559622783
 30
0.0
 10
12.24202089501618
 20
8.831723027542743
 30
0.0
 10
12.05968522311497
 20
7.813286406410167
 30
0.0
 10
11.92036854572058
 20
7.330715247271512
 30
0.0
 10
11.60940157032475
 20
6.67560773801966
 30
0.0
 10
11.44814888864561
 20
6.422403504847151
 30
0.0
 10
11.15940221991899
 20
6.153420394820766
 30
0.0
 10
11.05534299700525
 20
6.081711554913653
 30
0.0
 10
10.83685269208419
 20
5.984990734365194
 30
0.0
 10
10.72239448937827
 20
5.960044737829948
 30
0.0
 10
10.49080894621815
 20
5.960044737829948
 30
0.0
 10
10.37247092966696
 20
5.98499073436519
 30
0.0
 10
10.13927614147774
 20
6.08171155491365
 30
0.0
 10
10.02441741802136
 20
6.153420394820766
 30
0.0
 10
9.696633102990379
 20
6.422403504847152
 30
0.0
 10
9.500589013884978
 20
6.675607738019656
 30
0.0
 10
9.110170081983227
 20
7.330715247271505
 30
0.0
 10
8.921220063871709
 20
7.813286406410161
 30
0.0
 10
8.669319431777292
 20
8.831723027542739
 30
0.0
 10
8.607574254675448
 20
9.367977559622779
 30
0.0
 10
8.607574254675448
 20
9.86405174990449
 30
0.0
  0
SPLINE
  5
1F8C
330
1F7E
100
AcDbEntity
  8
0
100
AcDbSpline
210
0.0
220
0.0
230
1.0
 70
    11
 71
     3
 72
    42
 73
    38
 74
     0
 42
0.000000001
 43
0.0000000001
 40
0.0
 40
0.0
 40
0.0
 40
0.0
 40
0.1346815045028191
 40
0.1346815045028191
 40
0.2693630090056383
 40
0.2693630090056383
 40
0.3652303148484675
 40
0.3652303148484675
 40
0.4610976206912967
 40
0.4610976206912967
 40
0.5569649265341258
 40
0.5569649265341258
 40
0.652832232376955
 40
0.652832232376955
 40
0.7875137368797742
 40
0.7875137368797742
 40
0.9221952413825933
 40
0.9221952413825933
 40
1.071017498467106
 40
1.071017498467106
 40
1.219839755551619
 40
1.219839755551619
 40
1.31809318034759
 40
1.31809318034759
 40
1.367219892745576
 40
1.367219892745576
 40
1.416346605143562
 40
1.416346605143562
 40
1.465473317541548
 40
1.465473317541548
 40
1.514600029939534
 40
1.514600029939534
 40
1.612853454735505
 40
1.612853454735505
 40
1.761675711820018
 40
1.761675711820018
 40
1.910497968904532
 40
1.910497968904532
 40
1.910497968904532
 40
1.910497968904532
 10
-2.600000000000003
 20
9.86405174990449
 30
0.0
 10
-2.600000000000003
 20
10.31299009824722
 30
0.0
 10
-2.53902743246321
 20
10.80013803683292
 30
0.0
 10
-2.253363743244916
 20
11.71323444667621
 30
0.0
 10
-2.028192340106418
 20
12.13904335231891
 30
0.0
 10
-1.525382144980922
 20
12.71726645387154
 30
0.0
 10
-1.257168959519034
 20
12.93774505230557
 30
0.0
 10
-0.6543508073083398
 20
13.23623460191662
 30
0.0
 10
-0.31955768614276
 20
13.31395526217005
 30
0.0
 10
0.3195576861427677
 20
13.31395526217005
 30
0.0
 10
0.6543508073083483
 20
13.23623460191662
 30
0.0
 10
1.257168959519042
 20
12.93774505230557
 30
0.0
 10
1.52538214498093
 20
12.71726645387155
 30
0.0
 10
2.028192340106427
 20
12.13904335231892
 30
0.0
 10
2.253363743244925
 20
11.71323444667621
 30
0.0
 10
2.53902743246322
 20
10.80013803683292
 30
0.0
 10
2.600000000000013
 20
10.31299009824722
 30
0.0
 10
2.600000000000013
 20
9.367977559622781
 30
0.0
 10
2.526281431811325
 20
8.831723027542743
 30
0.0
 10
2.219229996618634
 20
7.813286406410167
 30
0.0
 10
1.987110390188703
 20
7.330715247271511
 30
0.0
 10
1.49115565890991
 20
6.675607738019659
 30
0.0
 10
1.23850868939211
 20
6.422403504847153
 30
0.0
 10
0.8025554499654948
 20
6.153420394820765
 30
0.0
 10
0.6477570855637504
 20
6.081711554913651
 30
0.0
 10
0.3283674932645909
 20
5.984990734365192
 30
0.0
 10
0.1637557079932923
 20
5.960044737829946
 30
0.0
 10
-0.1637557079932799
 20
5.960044737829946
 30
0.0
 10
-0.3283674932645781
 20
5.984990734365189
 30
0.0
 10
-0.6477570855637366
 20
6.081711554913649
 30
0.0
 10
-0.8025554499654802
 20
6.153420394820764
 30
0.0
 10
-1.238508689392094
 20
6.42240350484715
 30
0.0
 10
-1.491155658909896
 20
6.675607738019655
 30
0.0
 10
-1.987110390188691
 20
7.330715247271504
 30
0.0
 10
-2.219229996618622
 20
7.813286406410161
 30
0.0
 10
-2.526281431811315
 20
8.831723027542739
 30
0.0
 10
-2.600000000000003
 20
9.367977559622779
 30
0.0
 10
-2.600000000000003
 20
9.86405174990449
 30
0.0
  0
SPLINE
  5
1F8D
330
1F7E
100
AcDbEntity
  8
0
100
AcDbSpline
210
0.0
220
0.0
230
1.0
 70
    11
 71
     3
 72
    42
 73
    38
 74
     0
 42
0.000000001
 43
0.0000000001
 40
0.0
 40
0.0
 40
0.0
 40
0.0
 40
0.134681504502819
 40
0.134681504502819
 40
0.2693630090056381
 40
0.2693630090056381
 40
0.3652303148484672
 40
0.3652303148484672
 40
0.4610976206912964
 40
0.4610976206912964
 40
0.5569649265341255
 40
0.5569649265341255
 40
0.6528322323769547
 40
0.6528322323769547
 40
0.7875137368797737
 40
0.7875137368797737
 40
0.9221952413825926
 40
0.9221952413825926
 40
1.071017498467105
 40
1.071017498467105
 40
1.219839755551619
 40
1.219839755551619
 40
1.31809318034759
 40
1.31809318034759
 40
1.367219892745576
 40
1.367219892745576
 40
1.416346605143562
 40
1.416346605143562
 40
1.465473317541548
 40
1.465473317541548
 40
1.514600029939534
 40
1.514600029939534
 40
1.612853454735505
 40
1.612853454735505
 40
1.761675711820019
 40
1.761675711820019
 40
1.910497968904532
 40
1.910497968904532
 40
1.910497968904532
 40
1.910497968904532
 10
-12.2845295168455
 20
9.864051749904493
 30
0.0
 10
-12.2845295168455
 20
10.31299009824723
 30
0.0
 10
-12.24941235966648
 20
10.80013803683292
 30
0.0
 10
-12.08010534452121
 20
11.71323444667621
 30
0.0
 10
-11.94542542272509
 20
12.13904335231891
 30
0.0
 10
-11.63127397777969
 20
12.71726645387154
 30
0.0
 10
-11.46039403527819
 20
12.93774505230557
 30
0.0
 10
-11.06135247771603
 20
13.23623460191662
 30
0.0
 10
-10.83256312465004
 20
13.31395526217005
 30
0.0
 10
-10.38064031094638
 20
13.31395526217005
 30
0.0
 10
-10.13596069147079
 20
13.23623460191662
 30
0.0
 10
-9.682488642531895
 20
12.93774505230557
 30
0.0
 10
-9.474057860545903
 20
12.71726645387154
 30
0.0
 10
-9.077128308245368
 20
12.13904335231891
 30
0.0
 10
-8.893367777864442
 20
11.71323444667621
 30
0.0
 10
-8.658685329439668
 20
10.80013803683292
 30
0.0
 10
-8.607574254675441
 20
10.31299009824722
 30
0.0
 10
-8.607574254675441
 20
9.367977559622783
 30
0.0
 10
-8.669319431777285
 20
8.831723027542743
 30
0.0
 10
-8.921220063871702
 20
7.813286406410162
 30
0.0
 10
-9.110170081983223
 20
7.330715247271506
 30
0.0
 10
-9.500589013884972
 20
6.675607738019655
 30
0.0
 10
-9.696633102990375
 20
6.422403504847151
 30
0.0
 10
-10.02441741802135
 20
6.153420394820766
 30
0.0
 10
-10.13927614147773
 20
6.081711554913647
 30
0.0
 10
-10.37247092966696
 20
5.984990734365188
 30
0.0
 10
-10.49080894621815
 20
5.960044737829942
 30
0.0
 10
-10.72239448937827
 20
5.960044737829942
 30
0.0
 10
-10.83685269208418
 20
5.984990734365192
 30
0.0
 10
-11.05534299700524
 20
6.081711554913651
 30
0.0
 10
-11.15940221991898
 20
6.153420394820762
 30
0.0
 10
-11.4481488886456
 20
6.422403504847148
 30
0.0
 10
-11.60940157032474
 20
6.675607738019654
 30
0.0
 10
-11.92036854572057
 20
7.330715247271505
 30
0.0
 10
-12.05968522311496
 20
7.81328640641016
 30
0.0
 10
-12.24202089501617
 20
8.831723027542739
 30
0.0
 10
-12.28452951684549
 20
9.367977559622781
 30
0.0
 10
-12.2845295168455
 20
9.864051749904493
 30
0.0
  0
ELLIPSE
  5
1F8E
330
1F7E
100
AcDbEntity
  8
0
100
AcDbEllipse
 10
0.0000000000000005
 20
24.63699999999998
 30
0.0
 11
9.893419752286943
 21
-11.73542361185028
 31
0.0
210
0.0
220
0.0
230
1.0
 40
0.2679491924311228
 41
6.165420509955015
 42
6.381579433062785
  0
ELLIPSE
  5
1F8F
330
1F7E
100
AcDbEntity
  8
0
100
AcDbEllipse
 10
7.742503453452656
 20
13.68744660940672
 30
0.0
 11
-3.510935297989348
 21
-2.482606157515214
 31
0.0
210
0.0
220
0.0
230
1.0
 40
0.5000000000000001
 41
1.580907323852404
 42
2.061022495670922
  0
ELLIPSE
  5
1F90
330
1F7E
100
AcDbEntity
  8
0
100
AcDbEllipse
 10
-7.742503453452651
 20
13.68744660940672
 30
0.0
 11
-3.510935297989221
 21
2.482606157515394
 31
0.0
210
0.0
220
0.0
230
1.0
 40
0.5000000000000002
 41
1.080570157918991
 42
1.56068532973742
  0
ELLIPSE
  5
1F91
330
1F7E
100
AcDbEntity
  8
0
100
AcDbEllipse
 10
-0.0000000000000003
 20
24.63699999999998
 30
0.0
 11
-9.893419752286932
 21
-11.73542361185028
 31
0.0
210
0.0
220
0.0
230
1.0
 40
0.267949192431123
 41
6.184791181296391
 42
6.400950104404155
  0
SPLINE
  5
1F92
330
1F7E
100
AcDbEntity
  8
0
100
AcDbSpline
210
0.0
220
0.0
230
1.0
 70
     8
 71
     3
 72
    14
 73
    10
 74
     0
 42
0.000000001
 43
0.0000000001
 40
2.914838576927342
 40
2.914838576927342
 40
2.914838576927342
 40
2.914838576927342
 40
3.010669292702559
 40
3.010669292702559
 40
3.14227691233024
 40
3.14227691233024
 40
3.273884531957921
 40
3.273884531957921
 40
3.369715247733148
 40
3.369715247733148
 40
3.369715247733148
 40
3.369715247733148
 10
-2.26402199925648
 20
11.61641628742707
 30
0.0
 10
-1.985723738496961
 20
11.45812655070517
 30
0.0
 10
-1.676819934965742
 20
11.31802088966495
 30
0.0
 10
-0.9097861918580003
 20
11.0721898083921
 30
0.0
 10
-0.4386920654256017
 20
11.00044084089784
 30
0.0
 10
0.4386920654256076
 20
11.00044084089784
 30
0.0
 10
0.9097861918580045
 20
11.0721898083921
 30
0.0
 10
1.676819934965782
 20
11.31802088966496
 30
0.0
 10
1.985723738497035
 20
11.4581265507052
 30
0.0
 10
2.264021999256578
 20
11.61641628742713
 30
0.0
  0
ELLIPSE
  5
1F93
330
1F7E
100
AcDbEntity
  8
0
100
AcDbEllipse
 10
8.592503453452657
 20
12.4853650813896
 30
0.0
 11
-2.122891110412171
 21
-1.501110699892924
 31
0.0
210
0.0
220
0.0
230
1.0
 40
0.5000000000000005
 41
1.291074982388332
 42
2.640914128931409
  0
ELLIPSE
  5
1F94
330
1F7E
100
AcDbEntity
  8
0
100
AcDbEllipse
 10
0.0000000000000038
 20
12.48536508138959
 30
0.0
 11
-2.600000000000008
 21
0.0000000000001897
 31
0.0
210
0.0
220
0.0
230
1.0
 40
0.7071067811865481
 41
0.5063738323175793
 42
2.635218821272689
  0
ELLIPSE
  5
1F95
330
1F7E
100
AcDbEntity
  8
0
100
AcDbEllipse
 10
-8.59250345345265
 20
12.48536508138959
 30
0.0
 11
-2.122891110412094
 21
1.501110699893033
 31
0.0
210
0.0
220
0.0
230
1.0
 40
0.5000000000000005
 41
0.5006785246589214
 42
1.850517671201767
  0
SPLINE
  5
1F96
330
1F7E
100
AcDbEntity
  8
0
100
AcDbSpline
210
0.0
220
0.0
230
1.0
 70
     8
 71
     3
 72
    24
 73
    20
 74
     0
 42
0.000000001
 43
0.0000000001
 40
0.4610976206912964
 40
0.4610976206912964
 40
0.4610976206912964
 40
0.4610976206912964
 40
0.5569649265341255
 40
0.5569649265341255
 40
0.6528322323769547
 40
0.6528322323769547
 40
0.7875137368797738
 40
0.7875137368797738
 40
0.9221952413825928
 40
0.9221952413825928
 40
1.071017498467105
 40
1.071017498467105
 40
1.219839755551618
 40
1.219839755551618
 40
1.31809318034759
 40
1.31809318034759
 40
1.367219892745576
 40
1.367219892745576
 40
1.416346605143562
 40
1.416346605143562
 40
1.416346605143562
 40
1.416346605143562
 10
-15.0
 20
13.31395526217005
 30
0.0
 10
-15.0
 20
13.31395526217005
 30
0.0
 10
-14.98876388486692
 20
13.23623460191662
 30
0.0
 10
-14.95027571531111
 20
12.93774505230557
 30
0.0
 10
-14.92372326207237
 20
12.71726645387154
 30
0.0
 10
-14.86519030102777
 20
12.13904335231891
 30
0.0
 10
-14.83048506987269
 20
11.71323444667621
 30
0.0
 10
-14.78425765767775
 20
10.80013803683292
 30
0.0
 10
-14.77294825009551
 20
10.31299009824722
 30
0.0
 10
-14.77294825009551
 20
9.367977559622783
 30
0.0
 10
-14.78655054877537
 20
8.831723027542746
 30
0.0
 10
-14.83574040386096
 20
7.81328640641017
 30
0.0
 10
-14.87083647565498
 20
7.330715247271513
 30
0.0
 10
-14.92701749287886
 20
6.675607738019662
 30
0.0
 10
-14.951618732997
 20
6.422403504847156
 30
0.0
 10
-14.97922251742037
 20
6.153420394820767
 30
0.0
 10
-14.9868589174875
 20
6.081711554913653
 30
0.0
 10
-14.99725655732026
 20
5.984990734365194
 30
0.0
 10
-15.0
 20
5.960044737829948
 30
0.0
 10
-15.0
 20
5.960044737829948
 30
0.0
  0
LINE
  5
1F97
330
1F7E
100
AcDbEntity
  8
0
100
AcDbLine
 10
-15.0
 20
0.9999999999999992
 30
0.0
 11
-15.0
 21
5.960044737829948
 31
0.0
  0
LINE
  5
1F98
330
1F7E
100
AcDbEntity
  8
0
100
AcDbLine
 10
-15.0
 20
13.31395526217005
 30
0.0
 11
-15.0
 21
24.0
 31
0.0
  0
LINE
  5
1F99
330
1F7E
100
AcDbEntity
  8
0
100
AcDbLine
 10
15.0
 20
1.000000000000002
 30
0.0
 11
15.0
 21
5.960044737829956
 31
0.0
  0
LINE
  5
1F9A
330
1F7E
100
AcDbEntity
  8
0
100
AcDbLine
 10
15.0
 20
13.31395526217006
 30
0.0
 11
15.0
 21
24.0
 31
0.0
  0
ENDBLK
  5
1F80
330
1F7E
100
AcDbEntity
  8
0
100
AcDbBlockEnd
  0
BLOCK
  5
1F9C
330
1F9B
100
AcDbEntity
  8
0
100
AcDbBlockBegin
  2
CCS30-C-Right
 70
     0
 10
0.0
 20
0.0
 30
0.0
  3
CCS30-C-Right
  1

  0
LINE
  5
1F9E
330
1F9B
100
AcDbEntity
  8
0
100
AcDbLine
 10
13.99999999999999
 20
0.0
 30
0.0
 11
-14.0
 21
0.0
 31
0.0
  0
LINE
  5
1F9F
330
1F9B
100
AcDbEntity
  8
0
100
AcDbLine
 10
-15.0
 20
1.000000000000002
 30
0.0
 11
15.0
 21
0.9999999999999992
 31
0.0
  0
LINE
  5
1FA0
330
1F9B
100
AcDbEntity
  8
0
100
AcDbLine
 10
15.0
 20
24.0
 30
0.0
 11
-15.0
 21
24.0
 31
0.0
  0
LINE
  5
1FA1
330
1F9B
100
AcDbEntity
  8
0
100
AcDbLine
 10
-14.0
 20
25.0
 30
0.0
 11
14.0
 21
25.0
 31
0.0
  0
LINE
  5
1FA2
330
1F9B
100
AcDbEntity
  8
0
100
AcDbLine
 10
-14.0
 20
0.0
 30
0.0
 11
-15.0
 21
1.000000000000002
 31
0.0
  0
LINE
  5
1FA3
330
1F9B
100
AcDbEntity
  8
0
100
AcDbLine
 10
13.99999999999999
 20
0.0
 30
0.0
 11
15.0
 21
0.9999999999999992
 31
0.0
  0
LINE
  5
1FA4
330
1F9B
100
AcDbEntity
  8
0
100
AcDbLine
 10
14.0
 20
25.0
 30
0.0
 11
15.0
 21
24.0
 31
0.0
  0
LINE
  5
1FA5
330
1F9B
100
AcDbEntity
  8
0
100
AcDbLine
 10
-14.0
 20
25.0
 30
0.0
 11
-15.0
 21
24.0
 31
0.0
  0
SPLINE
  5
1FA6
330
1F9B
100
AcDbEntity
  8
0
100
AcDbSpline
210
0.0
220
0.0
230
1.0
 70
    11
 71
     3
 72
    42
 73
    38
 74
     0
 42
0.000000001
 43
0.0000000001
 40
0.0
 40
0.0
 40
0.0
 40
0.0
 40
0.1346815045028191
 40
0.1346815045028191
 40
0.2693630090056382
 40
0.2693630090056382
 40
0.3652303148484673
 40
0.3652303148484673
 40
0.4610976206912964
 40
0.4610976206912964
 40
0.5569649265341257
 40
0.5569649265341257
 40
0.652832232376955
 40
0.652832232376955
 40
0.787513736879774
 40
0.787513736879774
 40
0.9221952413825931
 40
0.9221952413825931
 40
1.071017498467106
 40
1.071017498467106
 40
1.219839755551618
 40
1.219839755551618
 40
1.31809318034759
 40
1.31809318034759
 40
1.367219892745576
 40
1.367219892745576
 40
1.416346605143562
 40
1.416346605143562
 40
1.465473317541547
 40
1.465473317541547
 40
1.514600029939533
 40
1.514600029939533
 40
1.612853454735505
 40
1.612853454735505
 40
1.761675711820018
 40
1.761675711820018
 40
1.910497968904531
 40
1.910497968904531
 40
1.910497968904531
 40
1.910497968904531
 10
8.607574254675444
 20
9.864051749904499
 30
0.0
 10
8.607574254675444
 20
10.31299009824723
 30
0.0
 10
8.658685329439668
 20
10.80013803683293
 30
0.0
 10
8.893367777864444
 20
11.71323444667622
 30
0.0
 10
9.07712830824537
 20
12.13904335231893
 30
0.0
 10
9.474057860545906
 20
12.71726645387155
 30
0.0
 10
9.682488642531904
 20
12.93774505230558
 30
0.0
 10
10.1359606914708
 20
13.23623460191663
 30
0.0
 10
10.38064031094638
 20
13.31395526217006
 30
0.0
 10
10.83256312465004
 20
13.31395526217006
 30
0.0
 10
11.06135247771604
 20
13.23623460191663
 30
0.0
 10
11.4603940352782
 20
12.93774505230558
 30
0.0
 10
11.63127397777969
 20
12.71726645387155
 30
0.0
 10
11.9454254227251
 20
12.13904335231892
 30
0.0
 10
12.08010534452122
 20
11.71323444667622
 30
0.0
 10
12.24941235966648
 20
10.80013803683293
 30
0.0
 10
12.2845295168455
 20
10.31299009824723
 30
0.0
 10
12.2845295168455
 20
9.36797755962279
 30
0.0
 10
12.24202089501618
 20
8.83172302754275
 30
0.0
 10
12.05968522311496
 20
7.813286406410173
 30
0.0
 10
11.92036854572057
 20
7.330715247271518
 30
0.0
 10
11.60940157032475
 20
6.675607738019667
 30
0.0
 10
11.44814888864561
 20
6.422403504847158
 30
0.0
 10
11.15940221991898
 20
6.153420394820773
 30
0.0
 10
11.05534299700525
 20
6.08171155491366
 30
0.0
 10
10.83685269208419
 20
5.984990734365201
 30
0.0
 10
10.72239448937827
 20
5.960044737829955
 30
0.0
 10
10.49080894621815
 20
5.960044737829955
 30
0.0
 10
10.37247092966696
 20
5.984990734365197
 30
0.0
 10
10.13927614147773
 20
6.081711554913656
 30
0.0
 10
10.02441741802135
 20
6.153420394820773
 30
0.0
 10
9.696633102990377
 20
6.422403504847159
 30
0.0
 10
9.500589013884976
 20
6.675607738019663
 30
0.0
 10
9.110170081983225
 20
7.330715247271512
 30
0.0
 10
8.921220063871707
 20
7.81328640641017
 30
0.0
 10
8.669319431777291
 20
8.831723027542748
 30
0.0
 10
8.607574254675444
 20
9.367977559622788
 30
0.0
 10
8.607574254675444
 20
9.864051749904499
 30
0.0
  0
SPLINE
  5
1FA7
330
1F9B
100
AcDbEntity
  8
0
100
AcDbSpline
210
0.0
220
0.0
230
1.0
 70
    11
 71
     3
 72
    42
 73
    38
 74
     0
 42
0.000000001
 43
0.0000000001
 40
0.0
 40
0.0
 40
0.0
 40
0.0
 40
0.1346815045028191
 40
0.1346815045028191
 40
0.2693630090056383
 40
0.2693630090056383
 40
0.3652303148484675
 40
0.3652303148484675
 40
0.4610976206912966
 40
0.4610976206912966
 40
0.5569649265341257
 40
0.5569649265341257
 40
0.652832232376955
 40
0.652832232376955
 40
0.7875137368797742
 40
0.7875137368797742
 40
0.9221952413825933
 40
0.9221952413825933
 40
1.071017498467106
 40
1.071017498467106
 40
1.219839755551619
 40
1.219839755551619
 40
1.31809318034759
 40
1.31809318034759
 40
1.367219892745576
 40
1.367219892745576
 40
1.416346605143562
 40
1.416346605143562
 40
1.465473317541548
 40
1.465473317541548
 40
1.514600029939534
 40
1.514600029939534
 40
1.612853454735505
 40
1.612853454735505
 40
1.761675711820018
 40
1.761675711820018
 40
1.910497968904532
 40
1.910497968904532
 40
1.910497968904532
 40
1.910497968904532
 10
-2.600000000000008
 20
9.864051749904504
 30
0.0
 10
-2.600000000000008
 20
10.31299009824723
 30
0.0
 10
-2.539027432463216
 20
10.80013803683293
 30
0.0
 10
-2.253363743244921
 20
11.71323444667622
 30
0.0
 10
-2.028192340106422
 20
12.13904335231893
 30
0.0
 10
-1.525382144980926
 20
12.71726645387155
 30
0.0
 10
-1.257168959519037
 20
12.93774505230558
 30
0.0
 10
-0.654350807308342
 20
13.23623460191663
 30
0.0
 10
-0.3195576861427635
 20
13.31395526217006
 30
0.0
 10
0.3195576861427637
 20
13.31395526217006
 30
0.0
 10
0.6543508073083445
 20
13.23623460191663
 30
0.0
 10
1.257168959519038
 20
12.93774505230558
 30
0.0
 10
1.525382144980926
 20
12.71726645387156
 30
0.0
 10
2.028192340106423
 20
12.13904335231893
 30
0.0
 10
2.25336374324492
 20
11.71323444667622
 30
0.0
 10
2.539027432463214
 20
10.80013803683293
 30
0.0
 10
2.600000000000008
 20
10.31299009824723
 30
0.0
 10
2.600000000000008
 20
9.367977559622795
 30
0.0
 10
2.526281431811318
 20
8.831723027542757
 30
0.0
 10
2.219229996618627
 20
7.813286406410179
 30
0.0
 10
1.987110390188698
 20
7.330715247271523
 30
0.0
 10
1.491155658909905
 20
6.675607738019673
 30
0.0
 10
1.238508689392104
 20
6.422403504847167
 30
0.0
 10
0.8025554499654889
 20
6.153420394820779
 30
0.0
 10
0.6477570855637448
 20
6.081711554913664
 30
0.0
 10
0.328367493264585
 20
5.984990734365204
 30
0.0
 10
0.1637557079932863
 20
5.960044737829958
 30
0.0
 10
-0.1637557079932858
 20
5.960044737829958
 30
0.0
 10
-0.328367493264584
 20
5.984990734365203
 30
0.0
 10
-0.6477570855637424
 20
6.081711554913661
 30
0.0
 10
-0.8025554499654861
 20
6.153420394820777
 30
0.0
 10
-1.2385086893921
 20
6.422403504847164
 30
0.0
 10
-1.491155658909901
 20
6.675607738019668
 30
0.0
 10
-1.987110390188696
 20
7.330715247271517
 30
0.0
 10
-2.219229996618627
 20
7.813286406410174
 30
0.0
 10
-2.526281431811319
 20
8.831723027542754
 30
0.0
 10
-2.600000000000008
 20
9.367977559622794
 30
0.0
 10
-2.600000000000008
 20
9.864051749904504
 30
0.0
  0
SPLINE
  5
1FA8
330
1F9B
100
AcDbEntity
  8
0
100
AcDbSpline
210
0.0
220
0.0
230
1.0
 70
    11
 71
     3
 72
    42
 73
    38
 74
     0
 42
0.000000001
 43
0.0000000001
 40
0.0
 40
0.0
 40
0.0
 40
0.0
 40
0.1346815045028191
 40
0.1346815045028191
 40
0.2693630090056382
 40
0.2693630090056382
 40
0.3652303148484673
 40
0.3652303148484673
 40
0.4610976206912964
 40
0.4610976206912964
 40
0.5569649265341255
 40
0.5569649265341255
 40
0.6528322323769547
 40
0.6528322323769547
 40
0.7875137368797738
 40
0.7875137368797738
 40
0.9221952413825929
 40
0.9221952413825929
 40
1.071017498467105
 40
1.071017498467105
 40
1.219839755551618
 40
1.219839755551618
 40
1.31809318034759
 40
1.31809318034759
 40
1.367219892745576
 40
1.367219892745576
 40
1.416346605143562
 40
1.416346605143562
 40
1.465473317541547
 40
1.465473317541547
 40
1.514600029939533
 40
1.514600029939533
 40
1.612853454735505
 40
1.612853454735505
 40
1.761675711820018
 40
1.761675711820018
 40
1.910497968904531
 40
1.910497968904531
 40
1.910497968904531
 40
1.910497968904531
 10
-12.2845295168455
 20
9.864051749904501
 30
0.0
 10
-12.2845295168455
 20
10.31299009824723
 30
0.0
 10
-12.24941235966648
 20
10.80013803683294
 30
0.0
 10
-12.08010534452122
 20
11.71323444667622
 30
0.0
 10
-11.94542542272509
 20
12.13904335231893
 30
0.0
 10
-11.63127397777969
 20
12.71726645387155
 30
0.0
 10
-11.46039403527819
 20
12.93774505230558
 30
0.0
 10
-11.06135247771604
 20
13.23623460191663
 30
0.0
 10
-10.83256312465004
 20
13.31395526217006
 30
0.0
 10
-10.38064031094638
 20
13.31395526217006
 30
0.0
 10
-10.13596069147079
 20
13.23623460191663
 30
0.0
 10
-9.682488642531902
 20
12.93774505230558
 30
0.0
 10
-9.474057860545906
 20
12.71726645387155
 30
0.0
 10
-9.077128308245372
 20
12.13904335231893
 30
0.0
 10
-8.893367777864447
 20
11.71323444667622
 30
0.0
 10
-8.658685329439672
 20
10.80013803683293
 30
0.0
 10
-8.607574254675446
 20
10.31299009824723
 30
0.0
 10
-8.607574254675446
 20
9.367977559622794
 30
0.0
 10
-8.669319431777291
 20
8.831723027542754
 30
0.0
 10
-8.921220063871706
 20
7.813286406410176
 30
0.0
 10
-9.110170081983229
 20
7.330715247271521
 30
0.0
 10
-9.500589013884978
 20
6.675607738019669
 30
0.0
 10
-9.696633102990377
 20
6.422403504847161
 30
0.0
 10
-10.02441741802135
 20
6.153420394820775
 30
0.0
 10
-10.13927614147774
 20
6.081711554913661
 30
0.0
 10
-10.37247092966696
 20
5.984990734365203
 30
0.0
 10
-10.49080894621815
 20
5.960044737829957
 30
0.0
 10
-10.72239448937827
 20
5.960044737829957
 30
0.0
 10
-10.83685269208419
 20
5.984990734365202
 30
0.0
 10
-11.05534299700525
 20
6.081711554913661
 30
0.0
 10
-11.15940221991899
 20
6.153420394820775
 30
0.0
 10
-11.44814888864561
 20
6.422403504847161
 30
0.0
 10
-11.60940157032475
 20
6.675607738019665
 30
0.0
 10
-11.92036854572058
 20
7.330715247271514
 30
0.0
 10
-12.05968522311497
 20
7.81328640641017
 30
0.0
 10
-12.24202089501618
 20
8.831723027542748
 30
0.0
 10
-12.2845295168455
 20
9.36797755962279
 30
0.0
 10
-12.2845295168455
 20
9.864051749904501
 30
0.0
  0
SPLINE
  5
1FA9
330
1F9B
100
AcDbEntity
  8
0
100
AcDbSpline
210
0.0
220
0.0
230
1.0
 70
     8
 71
     3
 72
    24
 73
    20
 74
     0
 42
0.000000001
 43
0.0000000001
 40
0.4610976206912966
 40
0.4610976206912966
 40
0.4610976206912968
 40
0.4610976206912968
 40
0.5569649265341258
 40
0.5569649265341258
 40
0.652832232376955
 40
0.652832232376955
 40
0.7875137368797742
 40
0.7875137368797742
 40
0.9221952413825933
 40
0.9221952413825933
 40
1.071017498467106
 40
1.071017498467106
 40
1.219839755551619
 40
1.219839755551619
 40
1.31809318034759
 40
1.31809318034759
 40
1.367219892745576
 40
1.367219892745576
 40
1.416346605143562
 40
1.416346605143562
 40
1.416346605143562
 40
1.416346605143562
 10
-15.0
 20
13.31395526217006
 30
0.0
 10
-15.0
 20
13.31395526217006
 30
0.0
 10
-14.98876388486692
 20
13.23623460191663
 30
0.0
 10
-14.95027571531111
 20
12.93774505230558
 30
0.0
 10
-14.92372326207237
 20
12.71726645387155
 30
0.0
 10
-14.86519030102777
 20
12.13904335231892
 30
0.0
 10
-14.8304850698727
 20
11.71323444667622
 30
0.0
 10
-14.78425765767775
 20
10.80013803683293
 30
0.0
 10
-14.77294825009551
 20
10.31299009824723
 30
0.0
 10
-14.77294825009551
 20
9.367977559622792
 30
0.0
 10
-14.78655054877538
 20
8.831723027542754
 30
0.0
 10
-14.83574040386097
 20
7.813286406410177
 30
0.0
 10
-14.87083647565499
 20
7.33071524727152
 30
0.0
 10
-14.92701749287887
 20
6.675607738019668
 30
0.0
 10
-14.951618732997
 20
6.422403504847162
 30
0.0
 10
-14.97922251742037
 20
6.153420394820773
 30
0.0
 10
-14.98685891748751
 20
6.08171155491366
 30
0.0
 10
-14.99725655732027
 20
5.984990734365201
 30
0.0
 10
-15.0
 20
5.960044737829957
 30
0.0
 10
-15.0
 20
5.960044737829955
 30
0.0
  0
ELLIPSE
  5
1FAA
330
1F9B
100
AcDbEntity
  8
0
100
AcDbEllipse
 10
-7.742503453452655
 20
13.68744660940673
 30
0.0
 11
-3.510935297989218
 21
2.482606157515396
 31
0.0
210
0.0
220
0.0
230
1.0
 40
0.5000000000000008
 41
1.080570157918992
 42
1.56068532973742
  0
ELLIPSE
  5
1FAB
330
1F9B
100
AcDbEntity
  8
0
100
AcDbEllipse
 10
-0.0000000000000013
 20
24.63699999999998
 30
0.0
 11
-9.893419752286936
 21
-11.73542361185028
 31
0.0
210
0.0
220
0.0
230
1.0
 40
0.267949192431123
 41
6.184791181296391
 42
6.400950104404153
  0
ELLIPSE
  5
1FAC
330
1F9B
100
AcDbEntity
  8
0
100
AcDbEllipse
 10
-0.000000000000002
 20
24.63699999999998
 30
0.0
 11
9.893419752286932
 21
-11.73542361185027
 31
0.0
210
0.0
220
0.0
230
1.0
 40
0.2679491924311232
 41
6.16542050995502
 42
6.38157943306278
  0
ELLIPSE
  5
1FAD
330
1F9B
100
AcDbEntity
  8
0
100
AcDbEllipse
 10
7.742503453452654
 20
13.68744660940673
 30
0.0
 11
-3.510935297989348
 21
-2.482606157515214
 31
0.0
210
0.0
220
0.0
230
1.0
 40
0.5000000000000008
 41
1.580907323852406
 42
2.06102249567092
  0
ELLIPSE
  5
1FAE
330
1F9B
100
AcDbEntity
  8
0
100
AcDbEllipse
 10
8.592503453452653
 20
12.4853650813896
 30
0.0
 11
-2.12289111041217
 21
-1.501110699892925
 31
0.0
210
0.0
220
0.0
230
1.0
 40
0.5000000000000009
 41
1.291074982388334
 42
2.640914128931409
  0
SPLINE
  5
1FAF
330
1F9B
100
AcDbEntity
  8
0
100
AcDbSpline
210
0.0
220
0.0
230
1.0
 70
     8
 71
     3
 72
    14
 73
    10
 74
     0
 42
0.000000001
 43
0.0000000001
 40
2.914838576927342
 40
2.914838576927342
 40
2.914838576927342
 40
2.914838576927342
 40
3.010669292702559
 40
3.010669292702559
 40
3.14227691233024
 40
3.14227691233024
 40
3.273884531957921
 40
3.273884531957921
 40
3.369715247733148
 40
3.369715247733148
 40
3.369715247733148
 40
3.369715247733148
 10
-2.264021999256483
 20
11.61641628742708
 30
0.0
 10
-1.985723738496965
 20
11.45812655070518
 30
0.0
 10
-1.676819934965744
 20
11.31802088966496
 30
0.0
 10
-0.9097861918580024
 20
11.07218980839211
 30
0.0
 10
-0.4386920654256051
 20
11.00044084089784
 30
0.0
 10
0.4386920654256043
 20
11.00044084089784
 30
0.0
 10
0.9097861918580035
 20
11.07218980839211
 30
0.0
 10
1.676819934965782
 20
11.31802088966497
 30
0.0
 10
1.985723738497033
 20
11.45812655070521
 30
0.0
 10
2.264021999256576
 20
11.61641628742714
 30
0.0
  0
ELLIPSE
  5
1FB0
330
1F9B
100
AcDbEntity
  8
0
100
AcDbEllipse
 10
-0.0000000000000006
 20
12.4853650813896
 30
0.0
 11
-2.600000000000008
 21
0.0000000000001903
 31
0.0
210
0.0
220
0.0
230
1.0
 40
0.7071067811865487
 41
0.5063738323175802
 42
2.635218821272689
  0
ELLIPSE
  5
1FB1
330
1F9B
100
AcDbEntity
  8
0
100
AcDbEllipse
 10
-8.592503453452653
 20
12.4853650813896
 30
0.0
 11
-2.122891110412092
 21
1.501110699893034
 31
0.0
210
0.0
220
0.0
230
0.9999999999999998
 40
0.5000000000000009
 41
0.5006785246589223
 42
1.850517671201767
  0
SPLINE
  5
1FB2
330
1F9B
100
AcDbEntity
  8
0
100
AcDbSpline
210
0.0
220
0.0
230
1.0
 70
     8
 71
     3
 72
    14
 73
    10
 74
     0
 42
0.000000001
 43
0.0000000001
 40
0.0
 40
0.0
 40
0.0
 40
0.0
 40
0.1346815045028191
 40
0.1346815045028191
 40
0.2693630090056382
 40
0.2693630090056382
 40
0.3652303148484672
 40
0.3652303148484672
 40
0.4610976206486724
 40
0.4610976206486724
 40
0.4610976206912964
 40
0.4610976206912964
 10
14.77294825009551
 20
9.864051749904497
 30
0.0
 10
14.77294825009551
 20
10.31299009824723
 30
0.0
 10
14.78425765767775
 20
10.80013803683292
 30
0.0
 10
14.83048506987269
 20
11.71323444667621
 30
0.0
 10
14.86519030102777
 20
12.13904335231891
 30
0.0
 10
14.92372326207237
 20
12.71726645387154
 30
0.0
 10
14.95027571531111
 20
12.93774505230557
 30
0.0
 10
14.98876388485836
 20
13.23623460185026
 30
0.0
 10
14.99999999999
 20
13.31395526210094
 30
0.0
 10
15.0
 20
13.31395526217005
 30
0.0
  0
SPLINE
  5
1FB3
330
1F9B
100
AcDbEntity
  8
0
100
AcDbSpline
210
0.0
220
0.0
230
1.0
 70
     8
 71
     3
 72
    16
 73
    12
 74
     0
 42
0.000000001
 43
0.0000000001
 40
1.416346605143562
 40
1.416346605143562
 40
1.416346605150187
 40
1.416346605150187
 40
1.465473317541547
 40
1.465473317541547
 40
1.514600029939533
 40
1.514600029939533
 40
1.612853454735505
 40
1.612853454735505
 40
1.761675711820018
 40
1.761675711820018
 40
1.910497968904531
 40
1.910497968904531
 40
1.910497968904531
 40
1.910497968904531
 10
15.0
 20
5.960044737829948
 30
0.0
 10
14.99999999999926
 20
5.960044737836676
 30
0.0
 10
14.99725655731956
 20
5.984990734371714
 30
0.0
 10
14.9868589174875
 20
6.081711554913652
 30
0.0
 10
14.97922251742037
 20
6.153420394820766
 30
0.0
 10
14.951618732997
 20
6.422403504847151
 30
0.0
 10
14.92701749287886
 20
6.675607738019656
 30
0.0
 10
14.87083647565498
 20
7.330715247271508
 30
0.0
 10
14.83574040386096
 20
7.813286406410164
 30
0.0
 10
14.78655054877538
 20
8.831723027542745
 30
0.0
 10
14.77294825009551
 20
9.367977559622785
 30
0.0
 10
14.77294825009551
 20
9.864051749904497
 30
0.0
  0
LINE
  5
1FB4
330
1F9B
100
AcDbEntity
  8
0
100
AcDbLine
 10
-15.0
 20
1.000000000000002
 30
0.0
 11
-15.0
 21
5.960044737829956
 31
0.0
  0
LINE
  5
1FB5
330
1F9B
100
AcDbEntity
  8
0
100
AcDbLine
 10
-15.0
 20
13.31395526217006
 30
0.0
 11
-15.0
 21
24.0
 31
0.0
  0
LINE
  5
1FB6
330
1F9B
100
AcDbEntity
  8
0
100
AcDbLine
 10
15.0
 20
0.9999999999999992
 30
0.0
 11
15.0
 21
5.960044737829948
 31
0.0
  0
LINE
  5
1FB7
330
1F9B
100
AcDbEntity
  8
0
100
AcDbLine
 10
15.0
 20
13.31395526217005
 30
0.0
 11
15.0
 21
24.0
 31
0.0
  0
ENDBLK
  5
1F9D
330
1F9B
100
AcDbEntity
  8
0
100
AcDbBlockEnd
  0
BLOCK
  5
1FB9
330
1FB8
100
AcDbEntity
  8
0
100
AcDbBlockBegin
  2
CCS30-C-Top
 70
     0
 10
0.0
 20
0.0
 30
0.0
  3
CCS30-C-Top
  1

  0
CIRCLE
  5
1FBB
330
1FB8
100
AcDbEntity
  8
0
100
AcDbCircle
 10
-0.000000000000009
 20
0.0000000000000002
 30
0.0
 40
15.0
  0
CIRCLE
  5
1FBC
330
1FB8
100
AcDbEntity
  8
0
100
AcDbCircle
 10
-0.0000000000000094
 20
0.0000000000000003
 30
0.0
 40
14.0
  0
CIRCLE
  5
1FBD
330
1FB8
100
AcDbEntity
  8
0
100
AcDbCircle
 10
-0.0000000000000094
 20
0.0000000000000003
 30
0.0
 40
12.9
  0
CIRCLE
  5
1FBE
330
1FB8
100
AcDbEntity
  8
0
100
AcDbCircle
 10
-0.0000000000000032
 20
-0.0000000000000013
 30
0.0
 40
7.555
  0
CIRCLE
  5
1FBF
330
1FB8
100
AcDbEntity
  8
0
100
AcDbCircle
 10
-0.0000000000000083
 20
0.0
 30
0.0
 40
11.4
  0
ELLIPSE
  5
1FC0
330
1FB8
100
AcDbEntity
  8
0
100
AcDbEllipse
 10
7.742503453452651
 20
-7.742503453452655
 30
0.0
 11
3.040559159102153
 21
3.040559159102156
 31
0.0
210
0.0
220
0.0
230
1.0
 40
0.7071067811865467
 41
0.1266037399717171
 42
3.014988913618076
  0
SPLINE
  5
1FC1
330
1FB8
100
AcDbEntity
  8
0
100
AcDbSpline
210
0.0
220
0.0
230
1.0
 70
     8
 71
     3
 72
     8
 73
     4
 74
     0
 42
0.000000001
 43
0.0000000001
 40
3.818650963637463
 40
3.818650963637463
 40
3.818650963637463
 40
3.818650963637463
 40
3.845785136642363
 40
3.845785136642363
 40
3.845785136642363
 40
3.845785136642363
 10
10.36053990734792
 20
-4.2914761431312
 30
0.0
 10
10.40600621168637
 20
-4.345318663831681
 30
0.0
 10
10.44961000816152
 20
-4.401678689839561
 30
0.0
 10
10.49119528472145
 20
-4.460358614388093
 30
0.0
  0
LINE
  5
1FC2
330
1FB8
100
AcDbEntity
  8
0
100
AcDbLine
 10
8.50046104088882
 20
-3.521006249560265
 30
0.0
 11
10.36053990734793
 21
-4.291476143131202
 31
0.0
  0
SPLINE
  5
1FC3
330
1FB8
100
AcDbEntity
  8
0
100
AcDbSpline
210
0.0
220
0.0
230
1.0
 70
     8
 71
     3
 72
    22
 73
    18
 74
     0
 42
0.000000001
 43
0.0000000001
 40
2.746129991896277
 40
2.746129991896277
 40
2.746129991896277
 40
2.746129991896277
 40
2.746690150004678
 40
2.746690150004678
 40
2.879061673074877
 40
2.879061673074877
 40
3.010669292702559
 40
3.010669292702559
 40
3.14227691233024
 40
3.14227691233024
 40
3.273884531957921
 40
3.273884531957921
 40
3.405492151585603
 40
3.405492151585603
 40
3.537863674655802
 40
3.537863674655802
 40
3.538423832764203
 40
3.538423832764203
 40
3.538423832764203
 40
3.538423832764203
 10
3.521006249560267
 20
-8.500461040888829
 30
0.0
 10
3.521127572739819
 20
-8.498968193196418
 30
0.0
 10
3.5212502356264
 20
-8.497475109189698
 30
0.0
 10
3.550676977998848
 20
-8.143094424532076
 30
0.0
 10
3.658647714213033
 20
-7.776522686316026
 30
0.0
 10
3.964168557324051
 20
-7.095777097648584
 30
0.0
 10
4.185411791225257
 20
-6.727428456394743
 30
0.0
 10
4.719865151066795
 20
-6.006497122452155
 30
0.0
 10
5.032301319137475
 20
-5.652705587767834
 30
0.0
 10
5.652705587767831
 20
-5.032301319137478
 30
0.0
 10
6.006497122452154
 20
-4.719865151066796
 30
0.0
 10
6.727428456394742
 20
-4.185411791225261
 30
0.0
 10
7.095777097648583
 20
-3.964168557324055
 30
0.0
 10
7.776522686316025
 20
-3.658647714213038
 30
0.0
 10
8.143094424532073
 20
-3.550676977998852
 30
0.0
 10
8.497475109189693
 20
-3.521250235626404
 30
0.0
 10
8.498968193196414
 20
-3.521127572739819
 30
0.0
 10
8.500461040888822
 20
-3.521006249560266
 30
0.0
  0
LINE
  5
1FC4
330
1FB8
100
AcDbEntity
  8
0
100
AcDbLine
 10
3.521006249560265
 20
-8.500461040888824
 30
0.0
 11
4.2914761431312
 21
-10.36053990734792
 31
0.0
  0
SPLINE
  5
1FC5
330
1FB8
100
AcDbEntity
  8
0
100
AcDbSpline
210
0.0
220
0.0
230
1.0
 70
     8
 71
     3
 72
     8
 73
     4
 74
     0
 42
0.000000001
 43
0.0000000001
 40
2.438768688018118
 40
2.438768688018118
 40
2.438768688018118
 40
2.438768688018118
 40
2.465902861023017
 40
2.465902861023017
 40
2.465902861023017
 40
2.465902861023017
 10
4.460358614388084
 20
-10.49119528472145
 30
0.0
 10
4.401678689839554
 20
-10.44961000816153
 30
0.0
 10
4.345318663831679
 20
-10.40600621168637
 30
0.0
 10
4.291476143131199
 20
-10.36053990734793
 30
0.0
  0
ELLIPSE
  5
1FC6
330
1FB8
100
AcDbEntity
  8
0
100
AcDbEllipse
 10
-0.0000000000000031
 20
-10.94955339059327
 30
0.0
 11
4.3
 21
0.0000000000000028
 31
0.0
210
0.0
220
0.0
230
1.0
 40
0.7071067811865465
 41
0.126603739971716
 42
3.014988913618076
  0
SPLINE
  5
1FC7
330
1FB8
100
AcDbEntity
  8
0
100
AcDbSpline
210
0.0
220
0.0
230
1.0
 70
     8
 71
     3
 72
     8
 73
     4
 74
     0
 42
0.000000001
 43
0.0000000001
 40
3.818650963637463
 40
3.818650963637463
 40
3.818650963637463
 40
3.818650963637463
 40
3.845785136642363
 40
3.845785136642363
 40
3.845785136642363
 40
3.845785136642363
 10
4.291476143131199
 20
-10.36053990734793
 30
0.0
 10
4.285553263740917
 20
-10.43076185096462
 30
0.0
 10
4.276533247335957
 20
-10.5014469477157
 30
0.0
 10
4.264445505821218
 20
-10.57234515133652
 30
0.0
  0
SPLINE
  5
1FC8
330
1FB8
100
AcDbEntity
  8
0
100
AcDbSpline
210
0.0
220
0.0
230
1.0
 70
     8
 71
     3
 72
    22
 73
    18
 74
     0
 42
0.000000001
 43
0.0000000001
 40
2.746129991896278
 40
2.746129991896278
 40
2.746129991896278
 40
2.746129991896278
 40
2.746690150004678
 40
2.746690150004678
 40
2.879061673074878
 40
2.879061673074878
 40
3.010669292702559
 40
3.010669292702559
 40
3.14227691233024
 40
3.14227691233024
 40
3.273884531957922
 40
3.273884531957922
 40
3.405492151585603
 40
3.405492151585603
 40
3.537863674655802
 40
3.537863674655802
 40
3.538423832764204
 40
3.538423832764204
 40
3.538423832764204
 40
3.538423832764204
 10
-3.521006249560268
 20
-8.500461040888822
 30
0.0
 10
-3.519864858390711
 20
-8.499491226605218
 30
0.0
 10
-3.518722352805778
 20
-8.498522192538096
 30
0.0
 10
-3.247329518483057
 20
-8.268745056374946
 30
0.0
 10
-2.911777316852393
 20
-8.085886534237792
 30
0.0
 10
-2.214381634885184
 20
-7.820562572185846
 30
0.0
 10
-1.797477221830556
 20
-7.716543341097588
 30
0.0
 10
-0.909786191858004
 20
-7.584683501068806
 30
0.0
 10
-0.438692065425607
 20
-7.555440840897845
 30
0.0
 10
0.4386920654256022
 20
-7.555440840897845
 30
0.0
 10
0.9097861918580017
 20
-7.584683501068805
 30
0.0
 10
1.797477221830553
 20
-7.716543341097588
 30
0.0
 10
2.214381634885179
 20
-7.820562572185848
 30
0.0
 10
2.911777316852386
 20
-8.085886534237792
 30
0.0
 10
3.24732951848305
 20
-8.268745056374946
 30
0.0
 10
3.518722352805773
 20
-8.498522192538096
 30
0.0
 10
3.519864858390709
 20
-8.499491226605224
 30
0.0
 10
3.521006249560267
 20
-8.500461040888829
 30
0.0
  0
LINE
  5
1FC9
330
1FB8
100
AcDbEntity
  8
0
100
AcDbLine
 10
-3.521006249560265
 20
-8.500461040888822
 30
0.0
 11
-4.291476143131203
 21
-10.36053990734793
 31
0.0
  0
SPLINE
  5
1FCA
330
1FB8
100
AcDbEntity
  8
0
100
AcDbSpline
210
0.0
220
0.0
230
1.0
 70
     8
 71
     3
 72
     8
 73
     4
 74
     0
 42
0.000000001
 43
0.0000000001
 40
2.438768688018117
 40
2.438768688018117
 40
2.438768688018117
 40
2.438768688018117
 40
2.465902861023017
 40
2.465902861023017
 40
2.465902861023017
 40
2.465902861023017
 10
-4.264445505821225
 20
-10.57234515133653
 30
0.0
 10
-4.276533247335962
 20
-10.5014469477157
 30
0.0
 10
-4.285553263740921
 20
-10.43076185096462
 30
0.0
 10
-4.291476143131204
 20
-10.36053990734793
 30
0.0
  0
ELLIPSE
  5
1FCB
330
1FB8
100
AcDbEntity
  8
0
100
AcDbEllipse
 10
-7.742503453452657
 20
-7.742503453452656
 30
0.0
 11
3.040559159102154
 21
-3.040559159102155
 31
0.0
210
0.0
220
0.0
230
1.0
 40
0.7071067811865471
 41
0.1266037399717153
 42
3.014988913618075
  0
SPLINE
  5
1FCC
330
1FB8
100
AcDbEntity
  8
0
100
AcDbSpline
210
0.0
220
0.0
230
1.0
 70
     8
 71
     3
 72
     8
 73
     4
 74
     0
 42
0.000000001
 43
0.0000000001
 40
3.818650963637463
 40
3.818650963637463
 40
3.818650963637463
 40
3.818650963637463
 40
3.845785136642363
 40
3.845785136642363
 40
3.845785136642363
 40
3.845785136642363
 10
-4.291476143131204
 20
-10.36053990734793
 30
0.0
 10
-4.345318663831684
 20
-10.40600621168637
 30
0.0
 10
-4.401678689839563
 20
-10.44961000816153
 30
0.0
 10
-4.460358614388095
 20
-10.49119528472145
 30
0.0
  0
SPLINE
  5
1FCD
330
1FB8
100
AcDbEntity
  8
0
100
AcDbSpline
210
0.0
220
0.0
230
1.0
 70
     8
 71
     3
 72
    22
 73
    18
 74
     0
 42
0.000000001
 43
0.0000000001
 40
2.746129991896277
 40
2.746129991896277
 40
2.746129991896277
 40
2.746129991896277
 40
2.746690150004678
 40
2.746690150004678
 40
2.879061673074878
 40
2.879061673074878
 40
3.010669292702559
 40
3.010669292702559
 40
3.14227691233024
 40
3.14227691233024
 40
3.273884531957922
 40
3.273884531957922
 40
3.405492151585603
 40
3.405492151585603
 40
3.537863674655802
 40
3.537863674655802
 40
3.538423832764203
 40
3.538423832764203
 40
3.538423832764203
 40
3.538423832764203
 10
-8.500461040888833
 20
-3.521006249560272
 30
0.0
 10
-8.498968193196423
 20
-3.521127572739825
 30
0.0
 10
-8.497475109189704
 20
-3.521250235626405
 30
0.0
 10
-8.14309442453208
 20
-3.550676977998852
 30
0.0
 10
-7.776522686316029
 20
-3.658647714213038
 30
0.0
 10
-7.095777097648587
 20
-3.964168557324056
 30
0.0
 10
-6.727428456394745
 20
-4.185411791225263
 30
0.0
 10
-6.006497122452156
 20
-4.719865151066798
 30
0.0
 10
-5.652705587767837
 20
-5.032301319137481
 30
0.0
 10
-5.032301319137482
 20
-5.652705587767837
 30
0.0
 10
-4.7198651510668
 20
-6.006497122452155
 30
0.0
 10
-4.185411791225265
 20
-6.727428456394743
 30
0.0
 10
-3.964168557324057
 20
-7.095777097648586
 30
0.0
 10
-3.65864771421304
 20
-7.776522686316028
 30
0.0
 10
-3.550676977998855
 20
-8.14309442453208
 30
0.0
 10
-3.521250235626409
 20
-8.4974751091897
 30
0.0
 10
-3.52112757273982
 20
-8.498968193196414
 30
0.0
 10
-3.521006249560268
 20
-8.500461040888822
 30
0.0
  0
LINE
  5
1FCE
330
1FB8
100
AcDbEntity
  8
0
100
AcDbLine
 10
-8.500461040888838
 20
-3.521006249560275
 30
0.0
 11
-10.36053990734793
 21
-4.291476143131206
 31
0.0
  0
SPLINE
  5
1FCF
330
1FB8
100
AcDbEntity
  8
0
100
AcDbSpline
210
0.0
220
0.0
230
1.0
 70
     8
 71
     3
 72
     8
 73
     4
 74
     0
 42
0.000000001
 43
0.0000000001
 40
2.438768688018117
 40
2.438768688018117
 40
2.438768688018117
 40
2.438768688018117
 40
2.465902861023018
 40
2.465902861023018
 40
2.465902861023018
 40
2.465902861023018
 10
-10.49119528472146
 20
-4.460358614388097
 30
0.0
 10
-10.44961000816153
 20
-4.401678689839565
 30
0.0
 10
-10.40600621168638
 20
-4.345318663831687
 30
0.0
 10
-10.36053990734793
 20
-4.291476143131206
 30
0.0
  0
ELLIPSE
  5
1FD0
330
1FB8
100
AcDbEntity
  8
0
100
AcDbEllipse
 10
-7.742503453452663
 20
7.742503453452651
 30
0.0
 11
-3.040559159102154
 21
-3.040559159102155
 31
0.0
210
0.0
220
0.0
230
1.0
 40
0.7071067811865471
 41
0.1266037399717168
 42
3.014988913618076
  0
SPLINE
  5
1FD1
330
1FB8
100
AcDbEntity
  8
0
100
AcDbSpline
210
0.0
220
0.0
230
1.0
 70
     8
 71
     3
 72
     8
 73
     4
 74
     0
 42
0.000000001
 43
0.0000000001
 40
3.818650963637464
 40
3.818650963637464
 40
3.818650963637464
 40
3.818650963637464
 40
3.845785136642364
 40
3.845785136642364
 40
3.845785136642364
 40
3.845785136642364
 10
-10.36053990734793
 20
4.291476143131197
 30
0.0
 10
-10.40600621168637
 20
4.345318663831677
 30
0.0
 10
-10.44961000816153
 20
4.401678689839556
 30
0.0
 10
-10.49119528472146
 20
4.460358614388089
 30
0.0
  0
LINE
  5
1FD2
330
1FB8
100
AcDbEntity
  8
0
100
AcDbLine
 10
-8.500461040888826
 20
3.521006249560263
 30
0.0
 11
-10.36053990734793
 21
4.291476143131197
 31
0.0
  0
SPLINE
  5
1FD3
330
1FB8
100
AcDbEntity
  8
0
100
AcDbSpline
210
0.0
220
0.0
230
1.0
 70
     8
 71
     3
 72
    22
 73
    18
 74
     0
 42
0.000000001
 43
0.0000000001
 40
2.746129991896279
 40
2.746129991896279
 40
2.746129991896279
 40
2.746129991896279
 40
2.746690150004678
 40
2.746690150004678
 40
2.879061673074878
 40
2.879061673074878
 40
3.010669292702559
 40
3.010669292702559
 40
3.14227691233024
 40
3.14227691233024
 40
3.273884531957922
 40
3.273884531957922
 40
3.405492151585604
 40
3.405492151585604
 40
3.537863674655803
 40
3.537863674655803
 40
3.538423832764204
 40
3.538423832764204
 40
3.538423832764204
 40
3.538423832764204
 10
-3.521006249560268
 20
8.500461040888817
 30
0.0
 10
-3.52112757273982
 20
8.498968193196411
 30
0.0
 10
-3.52125023562641
 20
8.497475109189693
 30
0.0
 10
-3.550676977998857
 20
8.143094424532074
 30
0.0
 10
-3.658647714213042
 20
7.776522686316025
 30
0.0
 10
-3.964168557324059
 20
7.095777097648583
 30
0.0
 10
-4.185411791225267
 20
6.72742845639474
 30
0.0
 10
-4.719865151066801
 20
6.006497122452153
 30
0.0
 10
-5.032301319137484
 20
5.652705587767831
 30
0.0
 10
-5.652705587767838
 20
5.032301319137477
 30
0.0
 10
-6.006497122452159
 20
4.719865151066794
 30
0.0
 10
-6.727428456394748
 20
4.185411791225257
 30
0.0
 10
-7.095777097648589
 20
3.96416855732405
 30
0.0
 10
-7.776522686316031
 20
3.658647714213032
 30
0.0
 10
-8.14309442453208
 20
3.550676977998848
 30
0.0
 10
-8.497475109189704
 20
3.521250235626401
 30
0.0
 10
-8.498968193196423
 20
3.521127572739817
 30
0.0
 10
-8.500461040888831
 20
3.521006249560265
 30
0.0
  0
LINE
  5
1FD4
330
1FB8
100
AcDbEntity
  8
0
100
AcDbLine
 10
-4.291476143131213
 20
10.36053990734793
 30
0.0
 11
-3.521006249560267
 21
8.500461040888804
 31
0.0
  0
SPLINE
  5
1FD5
330
1FB8
100
AcDbEntity
  8
0
100
AcDbSpline
210
0.0
220
0.0
230
1.0
 70
     8
 71
     3
 72
     8
 73
     4
 74
     0
 42
0.000000001
 43
0.0000000001
 40
2.438768688018117
 40
2.438768688018117
 40
2.438768688018117
 40
2.438768688018117
 40
2.465902861023016
 40
2.465902861023016
 40
2.465902861023016
 40
2.465902861023016
 10
-4.460358614388098
 20
10.49119528472146
 30
0.0
 10
-4.401678689839567
 20
10.44961000816153
 30
0.0
 10
-4.345318663831688
 20
10.40600621168638
 30
0.0
 10
-4.291476143131211
 20
10.36053990734794
 30
0.0
  0
ELLIPSE
  5
1FD6
330
1FB8
100
AcDbEntity
  8
0
100
AcDbEllipse
 10
-10.94955339059327
 20
-0.0000000000000034
 30
0.0
 11
0.000000000000002
 21
-4.3
 31
0.0
210
0.0
220
0.0
230
1.0
 40
0.707106781186547
 41
0.126603739971717
 42
3.014988913618076
  0
SPLINE
  5
1FD7
330
1FB8
100
AcDbEntity
  8
0
100
AcDbSpline
210
0.0
220
0.0
230
1.0
 70
     8
 71
     3
 72
     8
 73
     4
 74
     0
 42
0.000000001
 43
0.0000000001
 40
3.818650963637463
 40
3.818650963637463
 40
3.818650963637463
 40
3.818650963637463
 40
3.845785136642363
 40
3.845785136642363
 40
3.845785136642363
 40
3.845785136642363
 10
-10.36053990734793
 20
-4.291476143131206
 30
0.0
 10
-10.43076185096462
 20
-4.285553263740924
 30
0.0
 10
-10.50144694771571
 20
-4.276533247335963
 30
0.0
 10
-10.57234515133653
 20
-4.264445505821226
 30
0.0
  0
SPLINE
  5
1FD8
330
1FB8
100
AcDbEntity
  8
0
100
AcDbSpline
210
0.0
220
0.0
230
1.0
 70
     8
 71
     3
 72
    22
 73
    18
 74
     0
 42
0.000000001
 43
0.0000000001
 40
2.746129991896277
 40
2.746129991896277
 40
2.746129991896277
 40
2.746129991896277
 40
2.746690150004678
 40
2.746690150004678
 40
2.879061673074877
 40
2.879061673074877
 40
3.010669292702559
 40
3.010669292702559
 40
3.14227691233024
 40
3.14227691233024
 40
3.273884531957921
 40
3.273884531957921
 40
3.405492151585603
 40
3.405492151585603
 40
3.537863674655802
 40
3.537863674655802
 40
3.538423832764203
 40
3.538423832764203
 40
3.538423832764203
 40
3.538423832764203
 10
-8.500461040888831
 20
3.521006249560265
 30
0.0
 10
-8.499491226605226
 20
3.519864858390708
 30
0.0
 10
-8.4985221925381
 20
3.518722352805772
 30
0.0
 10
-8.268745056374948
 20
3.24732951848305
 30
0.0
 10
-8.085886534237795
 20
2.911777316852385
 30
0.0
 10
-7.820562572185849
 20
2.214381634885178
 30
0.0
 10
-7.71654334109759
 20
1.797477221830552
 30
0.0
 10
-7.584683501068807
 20
0.9097861918580003
 30
0.0
 10
-7.555440840897846
 20
0.4386920654256017
 30
0.0
 10
-7.555440840897846
 20
-0.4386920654256076
 30
0.0
 10
-7.584683501068807
 20
-0.9097861918580045
 30
0.0
 10
-7.71654334109759
 20
-1.797477221830555
 30
0.0
 10
-7.820562572185849
 20
-2.214381634885183
 30
0.0
 10
-8.085886534237792
 20
-2.911777316852392
 30
0.0
 10
-8.268745056374946
 20
-3.247329518483056
 30
0.0
 10
-8.498522192538098
 20
-3.518722352805778
 30
0.0
 10
-8.499491226605229
 20
-3.519864858390715
 30
0.0
 10
-8.500461040888833
 20
-3.521006249560272
 30
0.0
  0
SPLINE
  5
1FD9
330
1FB8
100
AcDbEntity
  8
0
100
AcDbSpline
210
0.0
220
0.0
230
1.0
 70
     8
 71
     3
 72
     8
 73
     4
 74
     0
 42
0.000000001
 43
0.0000000001
 40
2.438768688018117
 40
2.438768688018117
 40
2.438768688018117
 40
2.438768688018117
 40
2.465902861023017
 40
2.465902861023017
 40
2.465902861023017
 40
2.465902861023017
 10
-10.57234515133653
 20
4.264445505821218
 30
0.0
 10
-10.5014469477157
 20
4.276533247335956
 30
0.0
 10
-10.43076185096462
 20
4.285553263740914
 30
0.0
 10
-10.36053990734793
 20
4.291476143131197
 30
0.0
  0
SPLINE
  5
1FDA
330
1FB8
100
AcDbEntity
  8
0
100
AcDbSpline
210
0.0
220
0.0
230
1.0
 70
     8
 71
     3
 72
     8
 73
     4
 74
     0
 42
0.000000001
 43
0.0000000001
 40
2.438768688018118
 40
2.438768688018118
 40
2.438768688018118
 40
2.438768688018118
 40
2.465902861023017
 40
2.465902861023017
 40
2.465902861023017
 40
2.465902861023017
 10
10.49119528472145
 20
4.46035861438809
 30
0.0
 10
10.44961000816152
 20
4.401678689839558
 30
0.0
 10
10.40600621168637
 20
4.34531866383168
 30
0.0
 10
10.36053990734792
 20
4.2914761431312
 30
0.0
  0
SPLINE
  5
1FDB
330
1FB8
100
AcDbEntity
  8
0
100
AcDbSpline
210
0.0
220
0.0
230
1.0
 70
     8
 71
     3
 72
     8
 73
     4
 74
     0
 42
0.000000001
 43
0.0000000001
 40
3.818650963637464
 40
3.818650963637464
 40
3.818650963637464
 40
3.818650963637464
 40
3.845785136642363
 40
3.845785136642363
 40
3.845785136642363
 40
3.845785136642363
 10
4.291476143131196
 20
10.36053990734793
 30
0.0
 10
4.345318663831675
 20
10.40600621168638
 30
0.0
 10
4.401678689839553
 20
10.44961000816153
 30
0.0
 10
4.460358614388084
 20
10.49119528472146
 30
0.0
  0
LINE
  5
1FDC
330
1FB8
100
AcDbEntity
  8
0
100
AcDbLine
 10
3.521006249560251
 20
8.500461040888801
 30
0.0
 11
4.291476143131197
 21
10.36053990734793
 31
0.0
  0
SPLINE
  5
1FDD
330
1FB8
100
AcDbEntity
  8
0
100
AcDbSpline
210
0.0
220
0.0
230
1.0
 70
     8
 71
     3
 72
    22
 73
    18
 74
     0
 42
0.000000001
 43
0.0000000001
 40
2.746129991896277
 40
2.746129991896277
 40
2.746129991896277
 40
2.746129991896277
 40
2.746690150004678
 40
2.746690150004678
 40
2.879061673074878
 40
2.879061673074878
 40
3.010669292702559
 40
3.010669292702559
 40
3.14227691233024
 40
3.14227691233024
 40
3.273884531957922
 40
3.273884531957922
 40
3.405492151585604
 40
3.405492151585604
 40
3.537863674655803
 40
3.537863674655803
 40
3.538423832764202
 40
3.538423832764202
 40
3.538423832764202
 40
3.538423832764202
 10
8.500461040888822
 20
3.521006249560269
 30
0.0
 10
8.498968193196411
 20
3.521127572739821
 30
0.0
 10
8.497475109189696
 20
3.521250235626403
 30
0.0
 10
8.143094424532073
 20
3.55067697799885
 30
0.0
 10
7.776522686316022
 20
3.658647714213035
 30
0.0
 10
7.09577709764858
 20
3.964168557324052
 30
0.0
 10
6.727428456394739
 20
4.18541179122526
 30
0.0
 10
6.006497122452152
 20
4.719865151066796
 30
0.0
 10
5.652705587767831
 20
5.032301319137478
 30
0.0
 10
5.032301319137475
 20
5.652705587767834
 30
0.0
 10
4.719865151066794
 20
6.006497122452153
 30
0.0
 10
4.185411791225256
 20
6.727428456394742
 30
0.0
 10
3.964168557324049
 20
7.095777097648586
 30
0.0
 10
3.658647714213032
 20
7.776522686316027
 30
0.0
 10
3.550676977998847
 20
8.143094424532078
 30
0.0
 10
3.5212502356264
 20
8.497475109189696
 30
0.0
 10
3.52112757273981
 20
8.498968193196413
 30
0.0
 10
3.521006249560257
 20
8.500461040888819
 30
0.0
  0
LINE
  5
1FDE
330
1FB8
100
AcDbEntity
  8
0
100
AcDbLine
 10
8.500461040888819
 20
3.521006249560267
 30
0.0
 11
10.36053990734792
 21
4.291476143131202
 31
0.0
  0
ELLIPSE
  5
1FDF
330
1FB8
100
AcDbEntity
  8
0
100
AcDbEllipse
 10
7.742503453452648
 20
7.742503453452654
 30
0.0
 11
-3.040559159102153
 21
3.040559159102155
 31
0.0
210
0.0
220
0.0
230
1.0
 40
0.7071067811865467
 41
0.1266037399717141
 42
3.014988913618075
  0
ELLIPSE
  5
1FE0
330
1FB8
100
AcDbEntity
  8
0
100
AcDbEllipse
 10
8.59250345345265
 20
8.592503453452653
 30
0.0
 11
1.838477631085163
 21
-1.838477631084895
 31
0.0
210
0.0
220
0.0
230
1.0
 40
0.7071067811865466
 41
3.696088986501717
 42
5.728688974267212
  0
SPLINE
  5
1FE1
330
1FB8
100
AcDbEntity
  8
0
100
AcDbSpline
210
0.0
220
0.0
230
1.0
 70
     8
 71
     3
 72
     8
 73
     4
 74
     0
 42
0.000000001
 43
0.0000000001
 40
2.438768688018117
 40
2.438768688018117
 40
2.438768688018117
 40
2.438768688018117
 40
2.465902861023017
 40
2.465902861023017
 40
2.465902861023017
 40
2.465902861023017
 10
10.57234515133653
 20
-4.264445505821222
 30
0.0
 10
10.5014469477157
 20
-4.276533247335959
 30
0.0
 10
10.43076185096462
 20
-4.285553263740917
 30
0.0
 10
10.36053990734792
 20
-4.2914761431312
 30
0.0
  0
SPLINE
  5
1FE2
330
1FB8
100
AcDbEntity
  8
0
100
AcDbSpline
210
0.0
220
0.0
230
1.0
 70
     8
 71
     3
 72
     8
 73
     4
 74
     0
 42
0.000000001
 43
0.0000000001
 40
3.818650963637463
 40
3.818650963637463
 40
3.818650963637463
 40
3.818650963637463
 40
3.845785136642363
 40
3.845785136642363
 40
3.845785136642363
 40
3.845785136642363
 10
10.36053990734792
 20
4.2914761431312
 30
0.0
 10
10.43076185096462
 20
4.285553263740917
 30
0.0
 10
10.5014469477157
 20
4.276533247335959
 30
0.0
 10
10.57234515133652
 20
4.264445505821222
 30
0.0
  0
SPLINE
  5
1FE3
330
1FB8
100
AcDbEntity
  8
0
100
AcDbSpline
210
0.0
220
0.0
230
1.0
 70
     8
 71
     3
 72
    22
 73
    18
 74
     0
 42
0.000000001
 43
0.0000000001
 40
2.746129991896277
 40
2.746129991896277
 40
2.746129991896277
 40
2.746129991896277
 40
2.746690150004678
 40
2.746690150004678
 40
2.879061673074877
 40
2.879061673074877
 40
3.010669292702559
 40
3.010669292702559
 40
3.14227691233024
 40
3.14227691233024
 40
3.273884531957921
 40
3.273884531957921
 40
3.405492151585603
 40
3.405492151585603
 40
3.537863674655802
 40
3.537863674655802
 40
3.538423832764203
 40
3.538423832764203
 40
3.538423832764203
 40
3.538423832764203
 10
8.500461040888822
 20
-3.521006249560266
 30
0.0
 10
8.499491226605215
 20
-3.519864858390708
 30
0.0
 10
8.498522192538089
 20
-3.518722352805776
 30
0.0
 10
8.268745056374942
 20
-3.247329518483054
 30
0.0
 10
8.085886534237786
 20
-2.91177731685239
 30
0.0
 10
7.820562572185842
 20
-2.214381634885182
 30
0.0
 10
7.716543341097585
 20
-1.797477221830554
 30
0.0
 10
7.584683501068802
 20
-0.9097861918580024
 30
0.0
 10
7.555440840897842
 20
-0.4386920654256051
 30
0.0
 10
7.555440840897842
 20
0.4386920654256043
 30
0.0
 10
7.5846835010688
 20
0.9097861918580035
 30
0.0
 10
7.716543341097583
 20
1.797477221830555
 30
0.0
 10
7.820562572185845
 20
2.214381634885181
 30
0.0
 10
8.085886534237786
 20
2.911777316852388
 30
0.0
 10
8.268745056374942
 20
3.247329518483054
 30
0.0
 10
8.498522192538089
 20
3.518722352805776
 30
0.0
 10
8.499491226605218
 20
3.519864858390711
 30
0.0
 10
8.500461040888822
 20
3.521006249560269
 30
0.0
  0
ELLIPSE
  5
1FE4
330
1FB8
100
AcDbEntity
  8
0
100
AcDbEllipse
 10
10.94955339059326
 20
0.0000000000000003
 30
0.0
 11
-0.0000000000000011
 21
4.3
 31
0.0
210
0.0
220
0.0
230
1.0
 40
0.7071067811865467
 41
0.1266037399717166
 42
3.014988913618075
  0
ELLIPSE
  5
1FE5
330
1FB8
100
AcDbEntity
  8
0
100
AcDbEllipse
 10
12.1516349186104
 20
-0.0000000000000006
 30
0.0
 11
0.0000000000001893
 21
-2.600000000000008
 31
0.0
210
0.0
220
0.0
230
1.0
 40
0.7071067811865466
 41
3.696088986501717
 42
5.728688974267211
  0
ELLIPSE
  5
1FE6
330
1FB8
100
AcDbEntity
  8
0
100
AcDbEllipse
 10
8.592503453452653
 20
-8.592503453452653
 30
0.0
 11
-1.838477631084894
 21
-1.838477631085165
 31
0.0
210
0.0
220
0.0
230
1.0
 40
0.7071067811865465
 41
3.696088986501717
 42
5.728688974267211
  0
ELLIPSE
  5
1FE7
330
1FB8
100
AcDbEntity
  8
0
100
AcDbEllipse
 10
-0.0000000000000034
 20
-12.1516349186104
 30
0.0
 11
-2.600000000000008
 21
-0.0000000000001912
 31
0.0
210
0.0
220
0.0
230
1.0
 40
0.7071067811865466
 41
3.696088986501713
 42
5.728688974267211
  0
ELLIPSE
  5
1FE8
330
1FB8
100
AcDbEntity
  8
0
100
AcDbEllipse
 10
-8.592503453452655
 20
-8.592503453452657
 30
0.0
 11
-1.838477631085165
 21
1.838477631084893
 31
0.0
210
0.0
220
0.0
230
1.0
 40
0.7071067811865471
 41
3.696088986501713
 42
5.728688974267214
  0
ELLIPSE
  5
1FE9
330
1FB8
100
AcDbEntity
  8
0
100
AcDbEllipse
 10
-12.1516349186104
 20
-0.0000000000000038
 30
0.0
 11
-0.0000000000001901
 21
2.600000000000008
 31
0.0
210
0.0
220
0.0
230
1.0
 40
0.7071067811865471
 41
3.696088986501713
 42
5.728688974267214
  0
ELLIPSE
  5
1FEA
330
1FB8
100
AcDbEntity
  8
0
100
AcDbEllipse
 10
-8.59250345345266
 20
8.59250345345265
 30
0.0
 11
1.838477631084894
 21
1.838477631085165
 31
0.0
210
0.0
220
0.0
230
1.0
 40
0.707106781186547
 41
3.696088986501715
 42
5.728688974267215
  0
SPLINE
  5
1FEB
330
1FB8
100
AcDbEntity
  8
0
100
AcDbSpline
210
0.0
220
0.0
230
1.0
 70
     8
 71
     3
 72
     8
 73
     4
 74
     0
 42
0.000000001
 43
0.0000000001
 40
3.818650963637465
 40
3.818650963637465
 40
3.818650963637465
 40
3.818650963637465
 40
3.845785136642363
 40
3.845785136642363
 40
3.845785136642363
 40
3.845785136642363
 10
-4.291476143131206
 20
10.36053990734794
 30
0.0
 10
-4.285553263740923
 20
10.43076185096463
 30
0.0
 10
-4.276533247335965
 20
10.50144694771571
 30
0.0
 10
-4.264445505821228
 20
10.57234515133653
 30
0.0
  0
SPLINE
  5
1FEC
330
1FB8
100
AcDbEntity
  8
0
100
AcDbSpline
210
0.0
220
0.0
230
1.0
 70
     8
 71
     3
 72
     8
 73
     4
 74
     0
 42
0.000000001
 43
0.0000000001
 40
2.438768688018117
 40
2.438768688018117
 40
2.438768688018117
 40
2.438768688018117
 40
2.465902861023015
 40
2.465902861023015
 40
2.465902861023015
 40
2.465902861023015
 10
4.264445505821214
 20
10.57234515133652
 30
0.0
 10
4.276533247335951
 20
10.5014469477157
 30
0.0
 10
4.285553263740909
 20
10.43076185096462
 30
0.0
 10
4.291476143131192
 20
10.36053990734794
 30
0.0
  0
SPLINE
  5
1FED
330
1FB8
100
AcDbEntity
  8
0
100
AcDbSpline
210
0.0
220
0.0
230
1.0
 70
     8
 71
     3
 72
    22
 73
    18
 74
     0
 42
0.000000001
 43
0.0000000001
 40
2.746129991896278
 40
2.746129991896278
 40
2.746129991896278
 40
2.746129991896278
 40
2.746690150004678
 40
2.746690150004678
 40
2.879061673074877
 40
2.879061673074877
 40
3.010669292702559
 40
3.010669292702559
 40
3.14227691233024
 40
3.14227691233024
 40
3.273884531957921
 40
3.273884531957921
 40
3.405492151585602
 40
3.405492151585602
 40
3.537863674655802
 40
3.537863674655802
 40
3.538423832764201
 40
3.538423832764201
 40
3.538423832764201
 40
3.538423832764201
 10
3.52100624956025
 20
8.50046104088882
 30
0.0
 10
3.519864858390696
 20
8.499491226605218
 30
0.0
 10
3.518722352805767
 20
8.498522192538091
 30
0.0
 10
3.247329518483048
 20
8.268745056374944
 30
0.0
 10
2.911777316852383
 20
8.085886534237792
 30
0.0
 10
2.214381634885176
 20
7.820562572185846
 30
0.0
 10
1.797477221830549
 20
7.716543341097585
 30
0.0
 10
0.9097861918579976
 20
7.584683501068802
 30
0.0
 10
0.4386920654255998
 20
7.555440840897843
 30
0.0
 10
-0.4386920654256093
 20
7.555440840897843
 30
0.0
 10
-0.909786191858007
 20
7.584683501068802
 30
0.0
 10
-1.797477221830558
 20
7.716543341097585
 30
0.0
 10
-2.214381634885185
 20
7.820562572185846
 30
0.0
 10
-2.911777316852393
 20
8.08588653423779
 30
0.0
 10
-3.247329518483059
 20
8.268745056374942
 30
0.0
 10
-3.518722352805778
 20
8.498522192538088
 30
0.0
 10
-3.519864858390707
 20
8.499491226605217
 30
0.0
 10
-3.521006249560261
 20
8.500461040888819
 30
0.0
  0
ELLIPSE
  5
1FEE
330
1FB8
100
AcDbEntity
  8
0
100
AcDbEllipse
 10
-0.0000000000000066
 20
12.1516349186104
 30
0.0
 11
2.600000000000007
 21
0.0000000000001885
 31
0.0
210
0.0
220
0.0
230
1.0
 40
0.7071067811865472
 41
3.696088986501715
 42
5.728688974267215
  0
ELLIPSE
  5
1FEF
330
1FB8
100
AcDbEntity
  8
0
100
AcDbEllipse
 10
-0.0000000000000068
 20
10.94955339059327
 30
0.0
 11
-4.299999999999999
 21
-0.0000000000000005
 31
0.0
210
0.0
220
0.0
230
1.0
 40
0.7071067811865471
 41
0.126603739971716
 42
3.014988913618076
  0
CIRCLE
  5
1FF0
330
1FB8
100
AcDbEntity
  8
0
100
AcDbCircle
 10
-0.0000000000000032
 20
-0.0000000000000013
 30
0.0
 40
5.052999999999999
  0
ARC
  5
1FF1
330
1FB8
100
AcDbEntity
  8
0
100
AcDbCircle
 10
-0.0000000000000022
 20
-0.000000000000002
 30
0.0
 40
6.0
100
AcDbArc
 50
260.0000000000018
 51
169.9999999999509
  0
ENDBLK
  5
1FBA
330
1FB8
100
AcDbEntity
  8
0
100
AcDbBlockEnd
  0
BLOCK
  5
1FF3
330
1FF2
100
AcDbEntity
  8
0
100
AcDbBlockBegin
  2
CCS30-C-Bottom
 70
     0
 10
0.0
 20
0.0
 30
0.0
  3
CCS30-C-Bottom
  1

  0
CIRCLE
  5
1FF5
330
1FF2
100
AcDbEntity
  8
0
100
AcDbCircle
 10
0.0000000000000017
 20
0.0000000000000025
 30
0.0
 40
14.0
  0
CIRCLE
  5
1FF6
330
1FF2
100
AcDbEntity
  8
0
100
AcDbCircle
 10
0.0000000000000012
 20
0.0000000000000024
 30
0.0
 40
15.0
  0
CIRCLE
  5
1FF7
330
1FF2
100
AcDbEntity
  8
0
100
AcDbCircle
 10
0.0000000000000017
 20
0.0000000000000025
 30
0.0
 40
5.052999999999999
  0
ARC
  5
1FF8
330
1FF2
100
AcDbEntity
  8
0
100
AcDbCircle
 10
0.0000000000000017
 20
0.0000000000000022
 30
0.0
 40
6.0
100
AcDbArc
 50
190.000000000049
 51
99.99999999999804
  0
ENDBLK
  5
1FF4
330
1FF2
100
AcDbEntity
  8
0
100
AcDbBlockEnd
  0
BLOCK
  5
1FFA
330
1FF9
100
AcDbEntity
  8
0
100
AcDbBlockBegin
  2
CCS30-C-ISO
 70
     0
 10
0.0
 20
0.0
 30
0.0
  3
CCS30-C-ISO
  1

  0
ELLIPSE
  5
1FFC
330
1FF9
100
AcDbEntity
  8
0
100
AcDbEllipse
 10
0.0000000000000089
 20
-10.20620726159657
 30
0.0
 11
14.0
 21
0.0000000000008404
 31
0.0
210
0.0
220
0.0
230
1.0
 40
0.5773502691896252
 41
3.926990816986997
 42
5.497787143781895
  0
ELLIPSE
  5
1FFD
330
1FF9
100
AcDbEntity
  8
0
100
AcDbEllipse
 10
0.0000000000000087
 20
-9.389710680668848
 30
0.0
 11
15.0
 21
0.0000000000000028
 31
0.0
210
0.0
220
0.0
230
1.0
 40
0.5773502691896252
 41
3.141592653589793
 42
6.283185307179586
  0
ELLIPSE
  5
1FFE
330
1FF9
100
AcDbEntity
  8
0
100
AcDbEllipse
 10
0.0000000000000051
 20
9.38971068066885
 30
0.0
 11
-15.0
 21
-0.0000000000000011
 31
0.0
210
0.0
220
0.0
230
1.0
 40
0.5773502691896251
 41
5.497787143782138
 42
10.21017612416683
  0
ELLIPSE
  5
1FFF
330
1FF9
100
AcDbEntity
  8
0
100
AcDbEllipse
 10
0.000000000000005
 20
10.20620726159658
 30
0.0
 11
-14.0
 21
-0.0000000000000017
 31
0.0
210
0.0
220
0.0
230
1.0
 40
0.5773502691896252
 41
0.0
 42
6.283185307179586
  0
LINE
  5
2000
330
1FF9
100
AcDbEntity
  8
0
100
AcDbLine
 10
-9.899494936611665
 20
-15.92168332809064
 30
0.0
 11
-10.60660171779821
 21
-15.51343503762678
 31
0.0
  0
LINE
  5
2001
330
1FF9
100
AcDbEntity
  8
0
100
AcDbLine
 10
9.899494936611683
 20
-15.92168332809064
 30
0.0
 11
10.60660171779823
 21
-15.51343503762678
 31
0.0
  0
LINE
  5
2002
330
1FF9
100
AcDbEntity
  8
0
100
AcDbLine
 10
9.899494936611679
 20
15.92168332809065
 30
0.0
 11
10.60660171779823
 21
15.51343503762679
 31
0.0
  0
LINE
  5
2003
330
1FF9
100
AcDbEntity
  8
0
100
AcDbLine
 10
-9.899494936611667
 20
15.92168332809065
 30
0.0
 11
-10.60660171779822
 21
15.51343503762678
 31
0.0
  0
SPLINE
  5
2004
330
1FF9
100
AcDbEntity
  8
0
100
AcDbSpline
210
0.0
220
0.0
230
1.0
 70
     8
 71
     3
 72
    14
 73
    10
 74
     0
 42
0.000000001
 43
0.0000000001
 40
0.0
 40
0.0
 40
0.0
 40
0.0
 40
0.1346815045028191
 40
0.1346815045028191
 40
0.2693630090056382
 40
0.2693630090056382
 40
0.3652303148484673
 40
0.3652303148484673
 40
0.4610976206912964
 40
0.4610976206912964
 40
0.4610976206912967
 40
0.4610976206912967
 10
14.77294825009551
 20
-3.653353433598431
 30
0.0
 10
14.77294825009551
 20
-3.28679680712925
 30
0.0
 10
14.78425765767775
 20
-2.853839652587481
 30
0.0
 10
14.8304850698727
 20
-1.943371548025173
 30
0.0
 10
14.86519030102778
 20
-1.465697262223508
 30
0.0
 10
14.92372326207238
 20
-0.7032824752853695
 30
0.0
 10
14.95027571531112
 20
-0.368409498669624
 30
0.0
 10
14.98876388486692
 20
0.2233434204816898
 30
0.0
 10
15.0
 20
0.480094972473848
 30
0.0
 10
15.0
 20
0.6645916885899861
 30
0.0
  0
SPLINE
  5
2005
330
1FF9
100
AcDbEntity
  8
0
100
AcDbSpline
210
0.0
220
0.0
230
1.0
 70
     8
 71
     3
 72
    24
 73
    20
 74
     0
 42
0.000000001
 43
0.0000000001
 40
1.085565953618067
 40
1.085565953618067
 40
1.085565953618067
 40
1.085565953618067
 40
1.219839755551618
 40
1.219839755551618
 40
1.31809318034759
 40
1.31809318034759
 40
1.367219892745576
 40
1.367219892745576
 40
1.416346605143562
 40
1.416346605143562
 40
1.465473317541547
 40
1.465473317541547
 40
1.514600029939533
 40
1.514600029939533
 40
1.612853454735505
 40
1.612853454735505
 40
1.761675711820018
 40
1.761675711820018
 40
1.910497968904531
 40
1.910497968904531
 40
1.910497968904531
 40
1.910497968904531
 10
14.81864855200291
 20
-2.189553486238788
 30
0.0
 10
14.84259018928948
 20
-2.64833156059299
 30
0.0
 10
14.87414455924783
 20
-3.121800909467922
 30
0.0
 10
14.92701749287887
 20
-3.89467724681358
 30
0.0
 10
14.95161873299701
 20
-4.247283433336408
 30
0.0
 10
14.97922251742038
 20
-4.718604943137303
 30
0.0
 10
14.98685891748751
 20
-4.866527843101215
 30
0.0
 10
14.99725655732027
 20
-5.12989972947384
 30
0.0
 10
15.0
 20
-5.24530670889087
 30
0.0
 10
15.0
 20
-5.434395513073394
 30
0.0
 10
14.99725655732027
 20
-5.509065850732703
 30
0.0
 10
14.98685891748752
 20
-5.614493298540646
 30
0.0
 10
14.97922251742038
 20
-5.645316153291649
 30
0.0
 10
14.95161873299701
 20
-5.677390083764846
 30
0.0
 10
14.92701749287887
 20
-5.616515488964116
 30
0.0
 10
14.870836475655
 20
-5.367962045129583
 30
0.0
 10
14.83574040386097
 20
-5.107958660895048
 30
0.0
 10
14.78655054877538
 20
-4.453684870612272
 30
0.0
 10
14.77294825009551
 20
-4.058396313849938
 30
0.0
 10
14.77294825009551
 20
-3.653353433598431
 30
0.0
  0
SPLINE
  5
2006
330
1FF9
100
AcDbEntity
  8
0
100
AcDbSpline
210
0.0
220
0.0
230
1.0
 70
    11
 71
     3
 72
    42
 73
    38
 74
     0
 42
0.000000001
 43
0.0000000001
 40
0.0
 40
0.0
 40
0.0
 40
0.0
 40
0.1346815045028191
 40
0.1346815045028191
 40
0.2693630090056383
 40
0.2693630090056383
 40
0.3652303148484675
 40
0.3652303148484675
 40
0.4610976206912966
 40
0.4610976206912966
 40
0.5569649265341257
 40
0.5569649265341257
 40
0.652832232376955
 40
0.652832232376955
 40
0.7875137368797742
 40
0.7875137368797742
 40
0.9221952413825933
 40
0.9221952413825933
 40
1.071017498467106
 40
1.071017498467106
 40
1.219839755551619
 40
1.219839755551619
 40
1.31809318034759
 40
1.31809318034759
 40
1.367219892745576
 40
1.367219892745576
 40
1.416346605143562
 40
1.416346605143562
 40
1.465473317541548
 40
1.465473317541548
 40
1.514600029939534
 40
1.514600029939534
 40
1.612853454735505
 40
1.612853454735505
 40
1.761675711820018
 40
1.761675711820018
 40
1.910497968904532
 40
1.910497968904532
 40
1.910497968904532
 40
1.910497968904532
 10
8.607574254675453
 20
-9.244719157124048
 30
0.0
 10
8.607574254675453
 20
-8.878162530654869
 30
0.0
 10
8.658685329439677
 20
-8.460133004243173
 30
0.0
 10
8.893367777864451
 20
-7.616843456778934
 30
0.0
 10
9.077128308245379
 20
-7.191414452089661
 30
0.0
 10
9.474057860545913
 20
-6.537921845352975
 30
0.0
 10
9.682488642531909
 20
-6.259244242761513
 30
0.0
 10
10.1359606914708
 20
-5.785141795385071
 30
0.0
 10
10.38064031094639
 20
-5.589591547440324
 30
0.0
 10
10.83256312465005
 20
-5.328673789295582
 30
0.0
 10
11.06135247771604
 20
-5.250866598490514
 30
0.0
 10
11.4603940352782
 20
-5.232770085665752
 30
0.0
 10
11.6312739777797
 20
-5.292452539367848
 30
0.0
 10
11.9454254227251
 20
-5.535402340928964
 30
0.0
 10
12.08010534452122
 20
-5.776979664832956
 30
0.0
 10
12.2494123596665
 20
-6.387025786755257
 30
0.0
 10
12.28452951684551
 20
-6.755271420242776
 30
0.0
 10
12.28452951684551
 20
-7.52687092696346
 30
0.0
 10
12.24202089501618
 20
-8.000369513534719
 30
0.0
 10
12.05968522311497
 20
-8.977354430329802
 30
0.0
 10
11.92036854572058
 20
-9.480462475640914
 30
0.0
 10
11.60940157032476
 20
-10.24076399251533
 30
0.0
 10
11.44814888864562
 20
-10.56069049079514
 30
0.0
 10
11.15940221991899
 20
-10.96956064297827
 30
0.0
 10
11.05534299700526
 20
-11.09442438049104
 30
0.0
 10
10.8368526920842
 20
-11.30803167350805
 30
0.0
 10
10.72239448937827
 20
-11.39672248009811
 30
0.0
 10
10.49080894621816
 20
-11.53042845578203
 30
0.0
 10
10.37247092966697
 20
-11.57614260904639
 30
0.0
 10
10.13927614147775
 20
-11.62331582612555
 30
0.0
 10
10.02441741802136
 20
-11.62484442388
 30
0.0
 10
9.696633102990384
 20
-11.57192860113308
 30
0.0
 10
9.500589013884985
 20
-11.4582874896463
 30
0.0
 10
9.110170081983234
 20
-11.10293131515595
 30
0.0
 10
8.921220063871714
 20
-10.78934813486116
 30
0.0
 10
8.669319431777298
 20
-10.06306966506986
 30
0.0
 10
8.607574254675453
 20
-9.649762037375555
 30
0.0
 10
8.607574254675453
 20
-9.244719157124048
 30
0.0
  0
SPLINE
  5
2007
330
1FF9
100
AcDbEntity
  8
0
100
AcDbSpline
210
0.0
220
0.0
230
1.0
 70
    11
 71
     3
 72
    42
 73
    38
 74
     0
 42
0.000000001
 43
0.0000000001
 40
0.0
 40
0.0
 40
0.0
 40
0.0
 40
0.1346815045028191
 40
0.1346815045028191
 40
0.2693630090056382
 40
0.2693630090056382
 40
0.3652303148484673
 40
0.3652303148484673
 40
0.4610976206912964
 40
0.4610976206912964
 40
0.5569649265341255
 40
0.5569649265341255
 40
0.6528322323769547
 40
0.6528322323769547
 40
0.7875137368797738
 40
0.7875137368797738
 40
0.9221952413825929
 40
0.9221952413825929
 40
1.071017498467105
 40
1.071017498467105
 40
1.219839755551618
 40
1.219839755551618
 40
1.31809318034759
 40
1.31809318034759
 40
1.367219892745576
 40
1.367219892745576
 40
1.416346605143562
 40
1.416346605143562
 40
1.465473317541547
 40
1.465473317541547
 40
1.514600029939533
 40
1.514600029939533
 40
1.612853454735505
 40
1.612853454735505
 40
1.761675711820018
 40
1.761675711820018
 40
1.910497968904531
 40
1.910497968904531
 40
1.910497968904531
 40
1.910497968904531
 10
-2.600000000000001
 20
-10.68140838262245
 30
0.0
 10
-2.600000000000001
 20
-10.31485175615326
 30
0.0
 10
-2.53902743246321
 20
-9.923626619404029
 30
0.0
 10
-2.253363743244916
 20
-9.204775931584297
 30
0.0
 10
-2.028192340106416
 20
-8.877141490548124
 30
0.0
 10
-1.525382144980917
 20
-8.438818325932544
 30
0.0
 10
-1.257168959519031
 20
-8.274128370168458
 30
0.0
 10
-0.6543508073083393
 20
-8.052633828522035
 30
0.0
 10
-0.3195576861427585
 20
-7.995662349254393
 30
0.0
 10
0.3195576861427696
 20
-7.995662349254393
 30
0.0
 10
0.6543508073083516
 20
-8.052633828522038
 30
0.0
 10
1.257168959519043
 20
-8.274128370168458
 30
0.0
 10
1.525382144980932
 20
-8.438818325932544
 30
0.0
 10
2.028192340106428
 20
-8.877141490548124
 30
0.0
 10
2.253363743244927
 20
-9.204775931584299
 30
0.0
 10
2.539027432463221
 20
-9.92362661940403
 30
0.0
 10
2.600000000000013
 20
-10.31485175615326
 30
0.0
 10
2.600000000000013
 20
-11.08645126287395
 30
0.0
 10
2.526281431811325
 20
-11.53215454562872
 30
0.0
 10
2.219229996618634
 20
-12.39210434075012
 30
0.0
 10
1.987110390188702
 20
-12.80638476873894
 30
0.0
 10
1.491155658909908
 20
-13.37371393560071
 30
0.0
 10
1.238508689392108
 20
-13.59465785886709
 30
0.0
 10
0.8025554499654919
 20
-13.83021870089842
 30
0.0
 10
0.6477570855637483
 20
-13.89317760113928
 30
0.0
 10
0.3283674932645908
 20
-13.978152900578
 30
0.0
 10
0.1637557079932905
 20
-14.00010514882651
 30
0.0
 10
-0.1637557079932805
 20
-14.00010514882651
 30
0.0
 10
-0.3283674932645741
 20
-13.978152900578
 30
0.0
 10
-0.6477570855637338
 20
-13.89317760113928
 30
0.0
 10
-0.8025554499654784
 20
-13.83021870089842
 30
0.0
 10
-1.238508689392091
 20
-13.59465785886709
 30
0.0
 10
-1.491155658909896
 20
-13.37371393560071
 30
0.0
 10
-1.987110390188692
 20
-12.80638476873894
 30
0.0
 10
-2.219229996618621
 20
-12.39210434075012
 30
0.0
 10
-2.526281431811314
 20
-11.53215454562872
 30
0.0
 10
-2.600000000000001
 20
-11.08645126287395
 30
0.0
 10
-2.600000000000001
 20
-10.68140838262245
 30
0.0
  0
SPLINE
  5
2008
330
1FF9
100
AcDbEntity
  8
0
100
AcDbSpline
210
0.0
220
0.0
230
1.0
 70
    11
 71
     3
 72
    42
 73
    38
 74
     0
 42
0.000000001
 43
0.0000000001
 40
0.0
 40
0.0
 40
0.0
 40
0.0
 40
0.1346815045028191
 40
0.1346815045028191
 40
0.2693630090056383
 40
0.2693630090056383
 40
0.3652303148484675
 40
0.3652303148484675
 40
0.4610976206912966
 40
0.4610976206912966
 40
0.5569649265341258
 40
0.5569649265341258
 40
0.652832232376955
 40
0.652832232376955
 40
0.7875137368797742
 40
0.7875137368797742
 40
0.9221952413825933
 40
0.9221952413825933
 40
1.071017498467106
 40
1.071017498467106
 40
1.219839755551619
 40
1.219839755551619
 40
1.31809318034759
 40
1.31809318034759
 40
1.367219892745576
 40
1.367219892745576
 40
1.416346605143562
 40
1.416346605143562
 40
1.465473317541548
 40
1.465473317541548
 40
1.514600029939534
 40
1.514600029939534
 40
1.612853454735505
 40
1.612853454735505
 40
1.761675711820018
 40
1.761675711820018
 40
1.910497968904532
 40
1.910497968904532
 40
1.910497968904532
 40
1.910497968904532
 10
-12.28452951684549
 20
-7.121828046711957
 30
0.0
 10
-12.28452951684549
 20
-6.755271420242776
 30
0.0
 10
-12.24941235966648
 20
-6.38702578675526
 30
0.0
 10
-12.08010534452121
 20
-5.776979664832956
 30
0.0
 10
-11.94542542272509
 20
-5.535402340928966
 30
0.0
 10
-11.63127397777969
 20
-5.292452539367853
 30
0.0
 10
-11.46039403527819
 20
-5.232770085665755
 30
0.0
 10
-11.06135247771603
 20
-5.250866598490516
 30
0.0
 10
-10.83256312465003
 20
-5.328673789295585
 30
0.0
 10
-10.38064031094637
 20
-5.589591547440328
 30
0.0
 10
-10.13596069147079
 20
-5.785141795385073
 30
0.0
 10
-9.682488642531897
 20
-6.259244242761513
 30
0.0
 10
-9.474057860545899
 20
-6.537921845352977
 30
0.0
 10
-9.077128308245365
 20
-7.191414452089662
 30
0.0
 10
-8.893367777864439
 20
-7.616843456778935
 30
0.0
 10
-8.658685329439666
 20
-8.460133004243177
 30
0.0
 10
-8.607574254675437
 20
-8.87816253065487
 30
0.0
 10
-8.607574254675437
 20
-9.649762037375555
 30
0.0
 10
-8.669319431777282
 20
-10.06306966506986
 30
0.0
 10
-8.921220063871697
 20
-10.78934813486116
 30
0.0
 10
-9.110170081983218
 20
-11.10293131515595
 30
0.0
 10
-9.500589013884967
 20
-11.4582874896463
 30
0.0
 10
-9.696633102990366
 20
-11.57192860113308
 30
0.0
 10
-10.02441741802134
 20
-11.62484442388001
 30
0.0
 10
-10.13927614147773
 20
-11.62331582612555
 30
0.0
 10
-10.37247092966695
 20
-11.57614260904639
 30
0.0
 10
-10.49080894621815
 20
-11.53042845578204
 30
0.0
 10
-10.72239448937826
 20
-11.39672248009812
 30
0.0
 10
-10.83685269208418
 20
-11.30803167350805
 30
0.0
 10
-11.05534299700525
 20
-11.09442438049105
 30
0.0
 10
-11.15940221991898
 20
-10.96956064297827
 30
0.0
 10
-11.4481488886456
 20
-10.56069049079515
 30
0.0
 10
-11.60940157032474
 20
-10.24076399251534
 30
0.0
 10
-11.92036854572056
 20
-9.480462475640925
 30
0.0
 10
-12.05968522311496
 20
-8.97735443032981
 30
0.0
 10
-12.24202089501617
 20
-8.000369513534726
 30
0.0
 10
-12.28452951684549
 20
-7.526870926963464
 30
0.0
 10
-12.28452951684549
 20
-7.121828046711957
 30
0.0
  0
SPLINE
  5
2009
330
1FF9
100
AcDbEntity
  8
0
100
AcDbSpline
210
0.0
220
0.0
230
1.0
 70
     8
 71
     3
 72
    32
 73
    28
 74
     0
 42
0.000000001
 43
0.0000000001
 40
0.4610976206912964
 40
0.4610976206912964
 40
0.4610976206912968
 40
0.4610976206912968
 40
0.5569649265341257
 40
0.5569649265341257
 40
0.652832232376955
 40
0.652832232376955
 40
0.787513736879774
 40
0.787513736879774
 40
0.9221952413825931
 40
0.9221952413825931
 40
1.071017498467106
 40
1.071017498467106
 40
1.219839755551618
 40
1.219839755551618
 40
1.31809318034759
 40
1.31809318034759
 40
1.367219892745576
 40
1.367219892745576
 40
1.416346605143562
 40
1.416346605143562
 40
1.465473317541547
 40
1.465473317541547
 40
1.514600029939533
 40
1.514600029939533
 40
1.612853454735505
 40
1.612853454735505
 40
1.747127256668982
 40
1.747127256668982
 40
1.747127256668982
 40
1.747127256668982
 10
-14.99999999999999
 20
0.6645916885899839
 30
0.0
 10
-14.99999999999999
 20
0.4800949724738457
 30
0.0
 10
-14.98876388486691
 20
0.2233434204816831
 30
0.0
 10
-14.9502757153111
 20
-0.3684094986696307
 30
0.0
 10
-14.92372326207236
 20
-0.7032824752853762
 30
0.0
 10
-14.86519030102776
 20
-1.465697262223513
 30
0.0
 10
-14.83048506987269
 20
-1.943371548025176
 30
0.0
 10
-14.78425765767774
 20
-2.853839652587486
 30
0.0
 10
-14.7729482500955
 20
-3.286796807129252
 30
0.0
 10
-14.7729482500955
 20
-4.058396313849939
 30
0.0
 10
-14.78655054877537
 20
-4.453684870612275
 30
0.0
 10
-14.83574040386096
 20
-5.107958660895048
 30
0.0
 10
-14.87083647565498
 20
-5.36796204512958
 30
0.0
 10
-14.92701749287886
 20
-5.616515488964115
 30
0.0
 10
-14.95161873299699
 20
-5.67739008376485
 30
0.0
 10
-14.97922251742036
 20
-5.645316153291652
 30
0.0
 10
-14.98685891748749
 20
-5.614493298540645
 30
0.0
 10
-14.99725655732025
 20
-5.509065850732701
 30
0.0
 10
-14.99999999999999
 20
-5.434395513073396
 30
0.0
 10
-14.99999999999999
 20
-5.245306708890874
 30
0.0
 10
-14.99725655732026
 20
-5.129899729473843
 30
0.0
 10
-14.9868589174875
 20
-4.866527843101218
 30
0.0
 10
-14.97922251742036
 20
-4.718604943137307
 30
0.0
 10
-14.95161873299699
 20
-4.24728343333641
 30
0.0
 10
-14.92701749287886
 20
-3.894677246813587
 30
0.0
 10
-14.87414455924783
 20
-3.121800909468179
 30
0.0
 10
-14.8425901892895
 20
-2.64833156059353
 30
0.0
 10
-14.81864855200294
 20
-2.189553486239566
 30
0.0
  0
SPLINE
  5
200A
330
1FF9
100
AcDbEntity
  8
0
100
AcDbSpline
210
0.0
220
0.0
230
1.0
 70
     8
 71
     3
 72
    14
 73
    10
 74
     0
 42
0.000000001
 43
0.0000000001
 40
0.0
 40
0.0
 40
0.0
 40
0.0
 40
0.1346815045028191
 40
0.1346815045028191
 40
0.2693630090056383
 40
0.2693630090056383
 40
0.3652303148484675
 40
0.3652303148484675
 40
0.409788115174141
 40
0.409788115174141
 40
0.409788115174141
 40
0.409788115174141
 10
-8.607574254675437
 20
4.940233689713247
 30
0.0
 10
-8.607574254675437
 20
5.306790316182425
 30
0.0
 10
-8.658685329439663
 20
5.684270042293164
 30
0.0
 10
-8.893367777864437
 20
6.332060688217775
 30
0.0
 10
-9.077128308245365
 20
6.601974714700196
 30
0.0
 10
-9.474057860545901
 20
6.892716478825802
 30
0.0
 10
-9.682488642531893
 20
6.974078919812571
 30
0.0
 10
-10.01460844112669
 20
6.983840947878552
 30
0.0
 10
-10.12386850202543
 20
6.970672288122205
 30
0.0
 10
-10.23332378428015
 20
6.942590030597441
 30
0.0
  0
SPLINE
  5
200B
330
1FF9
100
AcDbEntity
  8
0
100
AcDbSpline
210
0.0
220
0.0
230
1.0
 70
     8
 71
     3
 72
     8
 73
     4
 74
     0
 42
0.000000001
 43
0.0000000001
 40
1.877556372912311
 40
1.877556372912311
 40
1.877556372912311
 40
1.877556372912311
 40
1.910497968904532
 40
1.910497968904532
 40
1.910497968904532
 40
1.910497968904532
 10
-8.616676584165253
 20
4.663393824393764
 30
0.0
 10
-8.610599471729132
 20
4.758112504245772
 30
0.0
 10
-8.607574254675437
 20
4.850578021386747
 30
0.0
 10
-8.607574254675437
 20
4.940233689713247
 30
0.0
  0
SPLINE
  5
200C
330
1FF9
100
AcDbEntity
  8
0
100
AcDbSpline
210
0.0
220
0.0
230
1.0
 70
     8
 71
     3
 72
    22
 73
    18
 74
     0
 42
0.000000001
 43
0.0000000001
 40
0.0403298514719324
 40
0.0403298514719324
 40
0.0403298514719324
 40
0.0403298514719324
 40
0.134681504502819
 40
0.134681504502819
 40
0.2693630090056381
 40
0.2693630090056381
 40
0.3652303148484672
 40
0.3652303148484672
 40
0.4610976206912964
 40
0.4610976206912964
 40
0.5569649265341255
 40
0.5569649265341255
 40
0.6528322323769547
 40
0.6528322323769547
 40
0.7875137368797737
 40
0.7875137368797737
 40
0.8818653899106594
 40
0.8818653899106594
 40
0.8818653899106594
 40
0.8818653899106594
 10
2.583037318086566
 20
6.714862744534764
 30
0.0
 10
2.55614384968698
 20
6.983972936586591
 30
0.0
 10
2.496256993420282
 20
7.263384214919634
 30
0.0
 10
2.253363743244928
 20
7.919993163023139
 30
0.0
 10
2.028192340106429
 20
8.28770175315866
 30
0.0
 10
1.525382144980931
 20
8.79361295940537
 30
0.0
 10
1.257168959519039
 20
8.988963047219515
 30
0.0
 10
0.6543508073083471
 20
9.254899898973254
 30
0.0
 10
0.3195576861427707
 20
9.324845726434364
 30
0.0
 10
-0.3195576861427585
 20
9.324845726434363
 30
0.0
 10
-0.6543508073083393
 20
9.254899898973256
 30
0.0
 10
-1.257168959519034
 20
8.988963047219515
 30
0.0
 10
-1.52538214498092
 20
8.79361295940537
 30
0.0
 10
-2.028192340106416
 20
8.28770175315866
 30
0.0
 10
-2.253363743244914
 20
7.919993163023139
 30
0.0
 10
-2.496256993420269
 20
7.263384214919634
 30
0.0
 10
-2.556143849686967
 20
6.983972936586601
 30
0.0
 10
-2.583037318086552
 20
6.714862744534775
 30
0.0
  0
ELLIPSE
  5
200D
330
1FF9
100
AcDbEntity
  8
0
100
AcDbEllipse
 10
0.0000000000000056
 20
7.291273694180013
 30
0.0
 11
4.3
 21
-0.0000000000000034
 31
0.0
210
0.0
220
0.0
230
1.0
 40
0.9855985596534885
 41
0.0148008050765364
 42
3.126791848513246
  0
SPLINE
  5
200E
330
1FF9
100
AcDbEntity
  8
0
100
AcDbSpline
210
0.0
220
0.0
230
1.0
 70
     8
 71
     3
 72
    14
 73
    10
 74
     0
 42
0.000000001
 43
0.0000000001
 40
3.818650963637464
 40
3.818650963637464
 40
3.818650963637464
 40
3.818650963637464
 40
3.865048492419973
 40
3.865048492419973
 40
4.059861787113943
 40
4.059861787113943
 40
4.254649006455712
 40
4.254649006455712
 40
4.306519025052153
 40
4.306519025052153
 40
4.306519025052153
 40
4.306519025052153
 10
-4.291476143131195
 20
7.744613456510109
 30
0.0
 10
-4.281348435648222
 20
7.901351654500643
 30
0.0
 10
-4.262165134251597
 20
8.057395011810983
 30
0.0
 10
-4.116121629401971
 20
8.858219683312121
 30
0.0
 10
-3.833695818235134
 20
9.469192228782286
 30
0.0
 10
-3.065017816396011
 20
10.45808702417124
 30
0.0
 10
-2.537777104777815
 20
10.88895217564034
 30
0.0
 10
-1.773084170562705
 20
11.25483445732724
 30
0.0
 10
-1.607014058792424
 20
11.32217333210975
 30
0.0
 10
-1.43749578212199
 20
11.37924355717732
 30
0.0
  0
ELLIPSE
  5
200F
330
1FF9
100
AcDbEntity
  8
0
100
AcDbEllipse
 10
0.000000000000005
 20
9.909819002719791
 30
0.0
 11
3.040559159102465
 21
5.266402946983637
 31
0.0
210
0.0
220
0.0
230
1.0
 40
0.5773502691896271
 41
2.293219136993551
 42
2.967605879570472
  0
SPLINE
  5
2010
330
1FF9
100
AcDbEntity
  8
0
100
AcDbSpline
210
0.0
220
0.0
230
1.0
 70
     8
 71
     3
 72
    22
 73
    18
 74
     0
 42
0.000000001
 43
0.0000000001
 40
2.746129991896279
 40
2.746129991896279
 40
2.746129991896279
 40
2.746129991896279
 40
2.746690150004678
 40
2.746690150004678
 40
2.879061673074878
 40
2.879061673074878
 40
3.010669292702559
 40
3.010669292702559
 40
3.14227691233024
 40
3.14227691233024
 40
3.273884531957922
 40
3.273884531957922
 40
3.405492151585604
 40
3.405492151585604
 40
3.537863674655803
 40
3.537863674655803
 40
3.538423832764204
 40
3.538423832764204
 40
3.538423832764204
 40
3.538423832764204
 10
3.521006249560273
 20
5.02681539525591
 30
0.0
 10
3.519864858390718
 20
5.025167259908728
 30
0.0
 10
3.518722352805779
 20
5.023519877447915
 30
0.0
 10
3.247329518483058
 20
4.632757258597837
 30
0.0
 10
2.911777316852395
 20
4.288081325531686
 30
0.0
 10
2.214381634885187
 20
3.754090214731904
 30
0.0
 10
1.797477221830559
 20
3.521640519620683
 30
0.0
 10
0.9097861918580097
 20
3.213216921398582
 30
0.0
 10
0.4386920654256111
 20
3.137750877032889
 30
0.0
 10
-0.4386920654255978
 20
3.137750877032889
 30
0.0
 10
-0.9097861918579969
 20
3.213216921398578
 30
0.0
 10
-1.797477221830549
 20
3.521640519620681
 30
0.0
 10
-2.214381634885175
 20
3.754090214731899
 30
0.0
 10
-2.911777316852384
 20
4.288081325531685
 30
0.0
 10
-3.247329518483045
 20
4.632757258597832
 30
0.0
 10
-3.518722352805768
 20
5.023519877447917
 30
0.0
 10
-3.519864858390704
 20
5.025167259908737
 30
0.0
 10
-3.521006249560261
 20
5.026815395255923
 30
0.0
  0
ELLIPSE
  5
2011
330
1FF9
100
AcDbEntity
  8
0
100
AcDbEllipse
 10
0.000000000000005
 20
9.909819002719791
 30
0.0
 11
3.040559159102155
 21
-5.266402946983816
 31
0.0
210
0.0
220
0.0
230
1.0
 40
0.5773502691896273
 41
0.1739867740197631
 42
0.8483735165965429
  0
SPLINE
  5
2012
330
1FF9
100
AcDbEntity
  8
0
100
AcDbSpline
210
0.0
220
0.0
230
1.0
 70
     8
 71
     3
 72
    14
 73
    10
 74
     0
 42
0.000000001
 43
0.0000000001
 40
1.978034799608328
 40
1.978034799608328
 40
1.978034799608328
 40
1.978034799608328
 40
2.02990481820477
 40
2.02990481820477
 40
2.224692037546538
 40
2.224692037546538
 40
2.419505332240508
 40
2.419505332240508
 40
2.465902861023016
 40
2.465902861023016
 40
2.465902861023016
 40
2.465902861023016
 10
1.437495782121995
 20
11.37924355717732
 30
0.0
 10
1.607014058792429
 20
11.32217333210975
 30
0.0
 10
1.773084170562709
 20
11.25483445732724
 30
0.0
 10
2.537777104777819
 20
10.88895217564034
 30
0.0
 10
3.065017816396018
 20
10.45808702417124
 30
0.0
 10
3.833695818235145
 20
9.469192228782288
 30
0.0
 10
4.116121629401979
 20
8.858219683312125
 30
0.0
 10
4.262165134251607
 20
8.057395011810994
 30
0.0
 10
4.281348435648241
 20
7.901351654500656
 30
0.0
 10
4.291476143131214
 20
7.74461345651013
 30
0.0
  0
SPLINE
  5
2013
330
1FF9
100
AcDbEntity
  8
0
100
AcDbSpline
210
0.0
220
0.0
230
1.0
 70
     8
 71
     3
 72
    10
 73
     6
 74
     0
 42
0.000000001
 43
0.0000000001
 40
2.291309746624369
 40
2.291309746624369
 40
2.291309746624369
 40
2.291309746624369
 40
2.433613210738708
 40
2.433613210738708
 40
2.575916674853046
 40
2.575916674853046
 40
2.575916674853046
 40
2.575916674853046
 10
-1.437495782121985
 20
11.37924355717732
 30
0.0
 10
-0.9737983934342098
 20
11.55729064946563
 30
0.0
 10
-0.4743448803811213
 20
11.64655610928623
 30
0.0
 10
0.4743448803811335
 20
11.64655610928623
 30
0.0
 10
0.9737983934342164
 20
11.55729064946562
 30
0.0
 10
1.437495782121995
 20
11.37924355717732
 30
0.0
  0
ELLIPSE
  5
2014
330
1FF9
100
AcDbEntity
  8
0
100
AcDbEllipse
 10
-7.742503453452648
 20
5.439682549667308
 30
0.0
 11
-2.150000000000312
 21
3.723909236272904
 31
0.0
210
0.0
220
0.0
230
1.0
 40
0.8164965809277259
 41
3.693187958369577
 42
6.226477590933732
  0
SPLINE
  5
2015
330
1FF9
100
AcDbEntity
  8
0
100
AcDbSpline
210
0.0
220
0.0
230
1.0
 70
     8
 71
     3
 72
    10
 73
     6
 74
     0
 42
0.000000001
 43
0.0000000001
 40
4.064844373919537
 40
4.064844373919537
 40
4.064844373919537
 40
4.064844373919537
 40
4.254649006455711
 40
4.254649006455711
 40
4.306519025052153
 40
4.306519025052153
 40
4.306519025052153
 40
4.306519025052153
 10
-11.04782408658602
 20
6.541665970972796
 30
0.0
 10
-11.06972009764234
 20
7.106229018213281
 30
0.0
 10
-10.96752744052195
 20
7.670293517475689
 30
0.0
 10
-10.66584812643437
 20
8.280109676540464
 30
0.0
 10
-10.59145017124941
 20
8.40495560262611
 30
0.0
 10
-10.50813320243422
 20
8.522490444128955
 30
0.0
  0
SPLINE
  5
2016
330
1FF9
100
AcDbEntity
  8
0
100
AcDbSpline
210
0.0
220
0.0
230
1.0
 70
     8
 71
     3
 72
    12
 73
     8
 74
     0
 42
0.000000001
 43
0.0000000001
 40
2.746129991896277
 40
2.746129991896277
 40
2.746129991896277
 40
2.746129991896277
 40
2.746690150004678
 40
2.746690150004678
 40
2.879061673074877
 40
2.879061673074877
 40
2.945716327027987
 40
2.945716327027987
 40
2.945716327027987
 40
2.945716327027987
 10
-3.521006249560261
 20
5.026815395255923
 30
0.0
 10
-3.521127572739812
 20
5.024865286429369
 30
0.0
 10
-3.521250235626399
 20
5.022915343594858
 30
0.0
 10
-3.550676977998844
 20
4.560212832479509
 30
0.0
 10
-3.658647714213032
 20
4.109470024656516
 30
0.0
 10
-3.88899411500772
 20
3.526039834028231
 30
0.0
 10
-3.983817734047362
 20
3.330835912607617
 30
0.0
 10
-4.093340691396882
 20
3.143623753325406
 30
0.0
  0
SPLINE
  5
2017
330
1FF9
100
AcDbEntity
  8
0
100
AcDbSpline
210
0.0
220
0.0
230
1.0
 70
     8
 71
     3
 72
    14
 73
    10
 74
     0
 42
0.000000001
 43
0.0000000001
 40
1.978034799608327
 40
1.978034799608327
 40
1.978034799608327
 40
1.978034799608327
 40
2.029904818204769
 40
2.029904818204769
 40
2.224692037546538
 40
2.224692037546538
 40
2.419505332240508
 40
2.419505332240508
 40
2.465902861023017
 40
2.465902861023017
 40
2.465902861023017
 40
2.465902861023017
 10
-8.475207171503189
 20
9.696200835329589
 30
0.0
 10
-8.318789094380933
 20
9.717077087132908
 30
0.0
 10
-8.158328445195547
 20
9.727826839501984
 30
0.0
 10
-7.384788338771141
 20
9.729807316077707
 30
0.0
 10
-6.740402828095646
 20
9.579132254405779
 30
0.0
 10
-5.595025599160877
 20
9.047976707919421
 30
0.0
 10
-5.033005698196227
 20
8.638950239968547
 30
0.0
 10
-4.482970827718698
 20
8.004590144607547
 30
0.0
 10
-4.383543069345316
 20
7.876912184772557
 30
0.0
 10
-4.291476143131195
 20
7.744613456510109
 30
0.0
  0
SPLINE
  5
2018
330
1FF9
100
AcDbEntity
  8
0
100
AcDbSpline
210
0.0
220
0.0
230
1.0
 70
     8
 71
     3
 72
    10
 73
     6
 74
     0
 42
0.000000001
 43
0.0000000001
 40
2.296608782621206
 40
2.296608782621206
 40
2.296608782621206
 40
2.296608782621206
 40
2.438912246735544
 40
2.438912246735544
 40
2.581215710849882
 40
2.581215710849882
 40
2.581215710849882
 40
2.581215710849882
 10
-10.50813320243423
 20
8.522490444128955
 30
0.0
 10
-10.21536268767228
 20
8.881444045475516
 30
0.0
 10
-9.881354027557003
 20
9.17002890998255
 30
0.0
 10
-9.210529064479771
 20
9.557329882994309
 30
0.0
 10
-8.838203792660486
 20
9.676547104227463
 30
0.0
 10
-8.475207171503189
 20
9.696200835329589
 30
0.0
  0
ELLIPSE
  5
2019
330
1FF9
100
AcDbEntity
  8
0
100
AcDbEllipse
 10
-8.592503453452648
 20
4.948934820856125
 30
0.0
 11
-1.300000000000193
 21
2.251666049839437
 31
0.0
210
0.0
220
0.0
230
0.9999999999999998
 40
0.8164965809277259
 41
3.77337315003035
 42
6.939797383807357
  0
ELLIPSE
  5
201A
330
1FF9
100
AcDbEntity
  8
0
100
AcDbEllipse
 10
0.0000000000000067
 20
7.003800330346214
 30
0.0
 11
2.600000000000008
 21
0.0000000000000004
 31
0.0
210
0.0
220
0.0
230
1.0
 40
0.9855985596534885
 41
0.0
 42
6.283185307179586
  0
SPLINE
  5
201B
330
1FF9
100
AcDbEntity
  8
0
100
AcDbSpline
210
0.0
220
0.0
230
1.0
 70
     8
 71
     3
 72
    16
 73
    12
 74
     0
 42
0.000000001
 43
0.0000000001
 40
0.5124071262084519
 40
0.5124071262084519
 40
0.5124071262084519
 40
0.5124071262084519
 40
0.5569649265341255
 40
0.5569649265341255
 40
0.6528322323769547
 40
0.6528322323769547
 40
0.7875137368797738
 40
0.7875137368797738
 40
0.9221952413825928
 40
0.9221952413825928
 40
0.9551368373748045
 40
0.9551368373748045
 40
0.9551368373748045
 40
0.9551368373748045
 10
10.23332378428017
 20
6.94259003059744
 30
0.0
 10
10.12386850202544
 20
6.970672288122205
 30
0.0
 10
10.01460844112671
 20
6.983840947878555
 30
0.0
 10
9.682488642531907
 20
6.974078919812571
 30
0.0
 10
9.474057860545912
 20
6.892716478825803
 30
0.0
 10
9.077128308245377
 20
6.601974714700194
 30
0.0
 10
8.893367777864451
 20
6.332060688217778
 30
0.0
 10
8.658685329439677
 20
5.684270042293164
 30
0.0
 10
8.607574254675453
 20
5.306790316182428
 30
0.0
 10
8.607574254675453
 20
4.850578021386771
 30
0.0
 10
8.610599471729145
 20
4.758112504245824
 30
0.0
 10
8.616676584165261
 20
4.663393824393839
 30
0.0
  0
SPLINE
  5
201C
330
1FF9
100
AcDbEntity
  8
0
100
AcDbSpline
210
0.0
220
0.0
230
1.0
 70
     8
 71
     3
 72
    10
 73
     6
 74
     0
 42
0.000000001
 43
0.0000000001
 40
2.296608782621206
 40
2.296608782621206
 40
2.296608782621206
 40
2.296608782621206
 40
2.438912246735544
 40
2.438912246735544
 40
2.581215710849882
 40
2.581215710849882
 40
2.581215710849882
 40
2.581215710849882
 10
8.4752071715032
 20
9.696200835329589
 30
0.0
 10
8.838203792660499
 20
9.676547104227466
 30
0.0
 10
9.210529064479779
 20
9.557329882994311
 30
0.0
 10
9.881354027557012
 20
9.170028909982555
 30
0.0
 10
10.21536268767229
 20
8.881444045475522
 30
0.0
 10
10.50813320243423
 20
8.52249044412896
 30
0.0
  0
SPLINE
  5
201D
330
1FF9
100
AcDbEntity
  8
0
100
AcDbSpline
210
0.0
220
0.0
230
1.0
 70
     8
 71
     3
 72
    14
 73
    10
 74
     0
 42
0.000000001
 43
0.0000000001
 40
3.818650963637465
 40
3.818650963637465
 40
3.818650963637465
 40
3.818650963637465
 40
3.865048492419971
 40
3.865048492419971
 40
4.059861787113941
 40
4.059861787113941
 40
4.254649006455711
 40
4.254649006455711
 40
4.306519025052153
 40
4.306519025052153
 40
4.306519025052153
 40
4.306519025052153
 10
4.29147614313122
 20
7.74461345651013
 30
0.0
 10
4.383543069345339
 20
7.876912184772568
 30
0.0
 10
4.482970827718714
 20
8.004590144607554
 30
0.0
 10
5.033005698196236
 20
8.638950239968552
 30
0.0
 10
5.595025599160887
 20
9.047976707919421
 30
0.0
 10
6.740402828095656
 20
9.579132254405781
 30
0.0
 10
7.384788338771151
 20
9.729807316077707
 30
0.0
 10
8.158328445195556
 20
9.727826839501984
 30
0.0
 10
8.318789094380944
 20
9.717077087132912
 30
0.0
 10
8.4752071715032
 20
9.696200835329591
 30
0.0
  0
SPLINE
  5
201E
330
1FF9
100
AcDbEntity
  8
0
100
AcDbSpline
210
0.0
220
0.0
230
1.0
 70
     8
 71
     3
 72
    10
 73
     6
 74
     0
 42
0.000000001
 43
0.0000000001
 40
1.978034799608327
 40
1.978034799608327
 40
1.978034799608327
 40
1.978034799608327
 40
2.029904818204769
 40
2.029904818204769
 40
2.219709450740943
 40
2.219709450740943
 40
2.219709450740943
 40
2.219709450740943
 10
10.50813320243423
 20
8.52249044412896
 30
0.0
 10
10.59145017124942
 20
8.404955602626111
 30
0.0
 10
10.66584812643438
 20
8.280109676540465
 30
0.0
 10
10.96752744052196
 20
7.670293517475695
 30
0.0
 10
11.06972009764235
 20
7.106229018213284
 30
0.0
 10
11.04782408658602
 20
6.541665970972793
 30
0.0
  0
SPLINE
  5
201F
330
1FF9
100
AcDbEntity
  8
0
100
AcDbSpline
210
0.0
220
0.0
230
1.0
 70
     8
 71
     3
 72
    12
 73
     8
 74
     0
 42
0.000000001
 43
0.0000000001
 40
3.338837497632492
 40
3.338837497632492
 40
3.338837497632492
 40
3.338837497632492
 40
3.405492151585602
 40
3.405492151585602
 40
3.537863674655802
 40
3.537863674655802
 40
3.538423832764201
 40
3.538423832764201
 40
3.538423832764201
 40
3.538423832764201
 10
4.093340691396897
 20
3.143623753325404
 30
0.0
 10
3.983817734047375
 20
3.330835912607614
 30
0.0
 10
3.888994115007733
 20
3.526039834028236
 30
0.0
 10
3.658647714213045
 20
4.10947002465652
 30
0.0
 10
3.550676977998858
 20
4.560212832479511
 30
0.0
 10
3.521250235626411
 20
5.022915343594853
 30
0.0
 10
3.521127572739831
 20
5.024865286429356
 30
0.0
 10
3.521006249560278
 20
5.026815395255905
 30
0.0
  0
ELLIPSE
  5
2020
330
1FF9
100
AcDbEntity
  8
0
100
AcDbEllipse
 10
8.592503453452659
 20
4.948934820856127
 30
0.0
 11
1.300000000000001
 21
2.251666049839549
 31
0.0
210
0.0
220
0.0
230
1.0
 40
0.8164965809277257
 41
5.626573230551667
 42
8.792997464328674
  0
ELLIPSE
  5
2021
330
1FF9
100
AcDbEntity
  8
0
100
AcDbEllipse
 10
7.74250345345266
 20
5.43968254966731
 30
0.0
 11
2.149999999999998
 21
3.723909236273087
 31
0.0
210
0.0
220
0.0
230
1.0
 40
0.8164965809277259
 41
0.0567077162456672
 42
2.589997348809851
  0
ELLIPSE
  5
2022
330
1FF9
100
AcDbEntity
  8
0
100
AcDbEllipse
 10
0.000000000000005
 20
10.20620726159658
 30
0.0
 11
12.9
 21
0.0000000000007727
 31
0.0
210
0.0
220
0.0
230
1.0
 40
0.5773502691896253
 41
0.0
 42
6.283185307179586
  0
ELLIPSE
  5
2023
330
1FF9
100
AcDbEntity
  8
0
100
AcDbEllipse
 10
0.0000000000000059
 20
5.262320464079199
 30
0.0
 11
-13.5
 21
-0.0000000000008116
 31
0.0
210
0.0
220
0.0
230
1.0
 40
0.5773502691896253
 41
3.749824376021338
 42
5.674953584747363
  0
ELLIPSE
  5
2024
330
1FF9
100
AcDbEntity
  8
0
100
AcDbEllipse
 10
0.0000000000000062
 20
3.629327302223745
 30
0.0
 11
-13.49999999999999
 21
-0.0000000000000033
 31
0.0
210
0.0
220
0.0
230
1.0
 40
0.5773502691896253
 41
5.604470564631538
 42
5.715735339290984
  0
ELLIPSE
  5
2025
330
1FF9
100
AcDbEntity
  8
0
100
AcDbEllipse
 10
0.0000000000000062
 20
3.629327302223745
 30
0.0
 11
-13.49999999999999
 21
-0.0000000000000031
 31
0.0
210
0.0
220
0.0
230
1.0
 40
0.5773502691896254
 41
4.819072401234091
 42
5.391103722932736
  0
ELLIPSE
  5
2026
330
1FF9
100
AcDbEntity
  8
0
100
AcDbEllipse
 10
0.0000000000000062
 20
3.629327302223745
 30
0.0
 11
-13.49999999999999
 21
-0.0000000000008099
 31
0.0
210
0.0
220
0.0
230
1.0
 40
0.5773502691896254
 41
4.033674237836461
 42
4.605705559535211
  0
ELLIPSE
  5
2027
330
1FF9
100
AcDbEntity
  8
0
100
AcDbEllipse
 10
0.0000000000000062
 20
3.629327302223745
 30
0.0
 11
-13.49999999999999
 21
-0.000000000000811
 31
0.0
210
0.0
220
0.0
230
1.0
 40
0.5773502691896253
 41
3.709042621478035
 42
3.82030739613751
  0
ELLIPSE
  5
2028
330
1FF9
100
AcDbEntity
  8
0
100
AcDbEllipse
 10
0.0000000000000072
 20
-1.224744871391589
 30
0.0
 11
-7.555
 21
0.0
 31
0.0
210
0.0
220
0.0
230
1.0
 40
0.5773502691896252
 41
4.378770924293871
 42
5.046007036475508
  0
ELLIPSE
  5
2029
330
1FF9
100
AcDbEntity
  8
0
100
AcDbEllipse
 10
0.0000000000000053
 20
8.164965809277262
 30
0.0
 11
11.4
 21
0.0000000000000061
 31
0.0
210
0.0
220
0.0
230
1.0
 40
0.5773502691896253
 41
5.98152190915651
 42
9.726441358792452
  0
ELLIPSE
  5
202A
330
1FF9
100
AcDbEntity
  8
0
100
AcDbEllipse
 10
0.0000000000000053
 20
8.164965809277262
 30
0.0
 11
12.9
 21
0.0000000000000004
 31
0.0
210
0.0
220
0.0
230
1.0
 40
0.5773502691896251
 41
0.1374687619788908
 42
3.004123891610903
  0
LINE
  5
202B
330
1FF9
100
AcDbEntity
  8
0
100
AcDbLine
 10
-14.99999999999999
 20
-9.389710680668851
 30
0.0
 11
-14.99999999999999
 21
-5.339851110982137
 31
0.0
  0
LINE
  5
202C
330
1FF9
100
AcDbEntity
  8
0
100
AcDbLine
 10
-14.99999999999999
 20
0.6645916885899839
 30
0.0
 11
-15.0
 21
9.389710680668843
 31
0.0
  0
LINE
  5
202D
330
1FF9
100
AcDbEntity
  8
0
100
AcDbLine
 10
15.00000000000001
 20
-9.389710680668846
 30
0.0
 11
15.00000000000001
 21
-5.339851110982132
 31
0.0
  0
LINE
  5
202E
330
1FF9
100
AcDbEntity
  8
0
100
AcDbLine
 10
15.00000000000001
 20
0.6645916885899883
 30
0.0
 11
15.0
 21
9.389710680668855
 31
0.0
  0
ENDBLK
  5
1FFB
330
1FF9
100
AcDbEntity
  8
0
100
AcDbBlockEnd
  0
ENDSEC
  0
SECTION
  2
ENTITIES
  0
INSERT
  5
202F
330
1F
100
AcDbEntity
  8
0
100
AcDbBlockReference
  2
CCS30-C-Front
 10
0.0
 20
0.0
 30
0.0
  0
INSERT
  5
2030
330
1F
100
AcDbEntity
  8
0
100
AcDbBlockReference
  2
CCS30-C-Left
 10
39.06941198553621
 20
0.0
 30
0.0
  0
INSERT
  5
2031
330
1F
100
AcDbEntity
  8
0
100
AcDbBlockReference
  2
CCS30-C-Right
 10
-39.06941198553622
 20
0.0
 30
0.0
  0
INSERT
  5
2032
330
1F
100
AcDbEntity
  8
0
100
AcDbBlockReference
  2
CCS30-C-Top
 10
0.0
 20
-24.01601815050836
 30
0.0
  0
INSERT
  5
2033
330
1F
100
AcDbEntity
  8
0
100
AcDbBlockReference
  2
CCS30-C-Bottom
 10
0.0
 20
49.01601815050836
 30
0.0
  0
INSERT
  5
2034
330
1F
100
AcDbEntity
  8
0
100
AcDbBlockReference
  2
CCS30-C-ISO
 10
39.03788039790262
 20
-27.30512918075969
 30
0.0
  0
MTEXT
  5
2035
330
1F
100
AcDbEntity
  8
0
100
AcDbMText
 10
0.0
 20
-48.03203630101672
 30
0.0
 40
3.005339383502786
 41
0.0
 71
     5
 72
     5
  1
CCS30
 73
     1
 44
1.0
1001
ACAD
1000
MTEXTBEGIN
1070
    73
1070
     1
1070
    44
1040
1.0
1070
    74
1070
     0
1000
MTEXTEND
  0
ENDSEC
  0
SECTION
  2
OBJECTS
  0
DICTIONARY
  5
C
330
0
100
AcDbDictionary
281
     1
  3
ACAD_CIP_PREVIOUS_PRODUCT_INFO
350
216
  3
ACAD_COLOR
350
6B
  3
ACAD_DETAILVIEWSTYLE
350
21B
  3
ACAD_GROUP
350
D
  3
ACAD_LAYOUT
350
1A
  3
ACAD_MATERIAL
350
6A
  3
ACAD_MLEADERSTYLE
350
12D
  3
ACAD_MLINESTYLE
350
17
  3
ACAD_PLOTSETTINGS
350
19
  3
ACAD_PLOTSTYLENAME
350
E
  3
ACAD_SCALELIST
350
10C
  3
ACAD_SECTIONVIEWSTYLE
350
219
  3
ACAD_TABLESTYLE
350
7E
  3
ACAD_VISUALSTYLE
350
EF
  3
ACDB_RECOMPOSE_DATA
350
2136
  3
AcDbVariableDictionary
350
5E
  3
DWGPROPS
350
2137
  0
DICTIONARY
  5
2086
330
8
100
AcDbDictionary
280
     1
281
     1
  0
DICTIONARY
  5
1FF
330
2
100
AcDbDictionary
280
     1
281
     1
  3
ACAD_LAYERSTATES
360
200
  0
DICTIONARY
  5
13C
330
10
100
AcDbDictionary
280
     1
281
     1
  0
DICTIONARY
  5
1CE
330
1F
100
AcDbDictionary
280
     1
281
     1
  3
ACAD_LAYOUTSELFREF
360
208E
  0
DICTIONARY
  5
2039
330
D2
100
AcDbDictionary
280
     1
281
     1
  3
ACAD_LAYOUTSELFREF
360
2097
  0
DICTIONARY
  5
203B
330
D6
100
AcDbDictionary
280
     1
281
     1
  3
ACAD_LAYOUTSELFREF
360
209A
  0
XRECORD
  5
216
102
{ACAD_REACTORS
330
C
102
}
330
C
100
AcDbXrecord
280
     1
300
ACD
300
2021
300

  0
DICTIONARY
  5
6B
102
{ACAD_REACTORS
330
C
102
}
330
C
100
AcDbDictionary
281
     1
  0
DICTIONARY
  5
21B
102
{ACAD_REACTORS
330
C
102
}
330
C
100
AcDbDictionary
281
     1
  3
Metric50
350
21C
  0
DICTIONARY
  5
D
102
{ACAD_REACTORS
330
C
102
}
330
C
100
AcDbDictionary
281
     1
  0
DICTIONARY
  5
1A
102
{ACAD_REACTORS
330
C
102
}
330
C
100
AcDbDictionary
281
     1
  3
Layout1
350
D3
  3
Layout2
350
D7
  3
Model
350
22
  0
DICTIONARY
  5
6A
102
{ACAD_REACTORS
330
C
102
}
330
C
100
AcDbDictionary
281
     1
  3
ByBlock
350
ED
  3
ByLayer
350
EC
  3
Global
350
EE
  0
DICTIONARY
  5
12D
102
{ACAD_REACTORS
330
C
102
}
330
C
100
AcDbDictionary
281
     1
  3
Standard
350
12E
  0
DICTIONARY
  5
17
102
{ACAD_REACTORS
330
C
102
}
330
C
100
AcDbDictionary
281
     1
  3
Standard
350
18
  0
DICTIONARY
  5
19
102
{ACAD_REACTORS
330
C
102
}
330
C
100
AcDbDictionary
281
     1
  0
ACDBDICTIONARYWDFLT
  5
E
102
{ACAD_REACTORS
330
C
102
}
330
C
100
AcDbDictionary
281
     1
  3
Normal
350
F
100
AcDbDictionaryWithDefault
340
F
  0
DICTIONARY
  5
10C
102
{ACAD_REACTORS
330
C
102
}
330
C
100
AcDbDictionary
281
     1
  3
A0
350
10D
  3
A1
350
1BE
  3
A2
350
1BF
  3
A3
350
1C0
  3
A4
350
1C1
  3
A5
350
1C2
  3
A6
350
1C3
  3
A7
350
1C4
  3
A8
350
1C5
  3
A9
350
1C6
  3
B0
350
1C7
  3
B1
350
1C8
  3
B2
350
1C9
  3
B3
350
1CA
  3
B4
350
1CB
  3
B5
350
1CC
  3
B6
350
1CD
  0
DICTIONARY
  5
219
102
{ACAD_REACTORS
330
C
102
}
330
C
100
AcDbDictionary
281
     1
  3
Metric50
350
21A
  0
DICTIONARY
  5
7E
102
{ACAD_REACTORS
330
C
102
}
330
C
100
AcDbDictionary
281
     1
  3
Standard
350
7F
  0
DICTIONARY
  5
EF
102
{ACAD_REACTORS
330
C
102
}
330
C
100
AcDbDictionary
281
     1
  3
2dWireframe
350
F5
  3
Basic
350
F4
  3
Brighten
350
FB
  3
ColorChange
350
FF
  3
Conceptual
350
F8
  3
Dim
350
FA
  3
EdgeColorOff
350
1E6
  3
Facepattern
350
FE
  3
Flat
350
F0
  3
FlatWithEdges
350
F1
  3
Gouraud
350
F2
  3
GouraudWithEdges
350
F3
  3
Hidden
350
F7
  3
JitterOff
350
1E4
  3
Linepattern
350
FD
  3
OverhangOff
350
1E5
  3
Realistic
350
F9
  3
Shaded
350
1F3
  3
Shaded with edges
350
1F2
  3
Shades of Gray
350
1EF
  3
Sketchy
350
1F0
  3
Thicken
350
FC
  3
Wireframe
350
F6
  3
X-Ray
350
1F1
  0
XRECORD
  5
2136
102
{ACAD_REACTORS
330
C
102
}
330
C
100
AcDbXrecord
280
     1
 90
        1
330
7F
  0
DICTIONARY
  5
5E
102
{ACAD_REACTORS
330
C
102
}
330
C
100
AcDbDictionary
281
     1
  3
CANNOSCALE
350
146
  3
CENTEREXE
350
259
  3
CENTERLTYPEFILE
350
25A
  3
CMLEADERSTYLE
350
145
  3
CTABLESTYLE
350
84
  3
CVIEWDETAILSTYLE
350
227
  3
CVIEWSECTIONSTYLE
350
228
  3
DIMASSOC
350
5F
  3
HIDETEXT
350
63
  3
INDEXCTL
350
20E3
  3
LAYEREVAL
350
1AE
  3
LAYERNOTIFY
350
1AF
  3
LIGHTINGUNITS
350
20E1
  3
MSLTSCALE
350
20E0
  3
PSOLHEIGHT
350
2133
  3
PSOLWIDTH
350
2132
  3
SORTENTS
350
20E2
  3
XCLIPFRAME
350
2134
  0
XRECORD
  5
2137
102
{ACAD_REACTORS
330
C
102
}
330
C
100
AcDbXrecord
280
     1
  1
DWGPROPS COOKIE
  2

  3

  4

  6

  7

  8
tronnguyen
  9

300
=
301
=
302
=
303
=
304
=
305
=
306
=
307
=
308
=
309
=
 40
0.0082407407407407
 41
2460312.625706019
 42
2460312.634293981
  1

 90
        0
  0
DICTIONARY
  5
200
102
{ACAD_REACTORS
330
1FF
102
}
330
1FF
100
AcDbDictionary
281
     1
  0
XRECORD
  5
208E
102
{ACAD_REACTORS
330
1CE
102
}
330
1CE
100
AcDbXrecord
280
     1
340
1F
  0
XRECORD
  5
2097
102
{ACAD_REACTORS
330
2039
102
}
330
2039
100
AcDbXrecord
280
     1
340
D2
  0
XRECORD
  5
209A
102
{ACAD_REACTORS
330
203B
102
}
330
203B
100
AcDbXrecord
280
     1
340
D6
  0
ACDBDETAILVIEWSTYLE
  5
21C
102
{ACAD_XDICTIONARY
360
2176
102
}
102
{ACAD_REACTORS
330
21B
102
}
330
21B
100
AcDbModelDocViewStyle
 70
     0
  3
Metric50
290
     0
100
AcDbDetailViewStyle
 70
     0
 71
     0
 90
        3
 71
     1
340
11
 40
5.0
340
0
 40
5.0
300

 40
0.0
280
     1
 71
     2
340
16
 90
       25
 71
     3
340
11
 40
5.0
 90
        0
 40
15.0
 90
        1
300
%<\AcVar ViewDetailId>% (%<\AcVar ViewScale \f "%sn">%)
 71
     4
340
16
 90
       25
340
16
 90
       25
280
     0
  0
LAYOUT
  5
D3
102
{ACAD_XDICTIONARY
360
213B
102
}
102
{ACAD_REACTORS
330
1A
102
}
330
1A
100
AcDbPlotSettings
  1

  2
C:\Documents and Settings\basas\Application Data\Autodesk\AutoCAD 2005\R16.1\enu\plotters\Default Windows System Printer.pc3
  4

  6

 40
0.0
 41
0.0
 42
0.0
 43
0.0
 44
0.0
 45
0.0
 46
0.0
 47
0.0
 48
0.0
 49
0.0
140
0.0
141
0.0
142
1.0
143
1.0
 70
   688
 72
     0
 73
     0
 74
     5
  7

 75
    16
147
1.0
148
0.0
149
0.0
100
AcDbLayout
  1
Layout1
 70
     1
 71
     1
 10
0.0
 20
0.0
 11
12.0
 21
9.0
 12
0.0
 22
0.0
 32
0.0
 14
0.0
 24
0.0
 34
0.0
 15
0.0
 25
0.0
 35
0.0
146
0.0
 13
0.0
 23
0.0
 33
0.0
 16
1.0
 26
0.0
 36
0.0
 17
0.0
 27
1.0
 37
0.0
 76
     0
330
D2
  0
LAYOUT
  5
D7
102
{ACAD_XDICTIONARY
360
213D
102
}
102
{ACAD_REACTORS
330
1A
102
}
330
1A
100
AcDbPlotSettings
  1

  2
C:\Documents and Settings\basas\Application Data\Autodesk\AutoCAD 2005\R16.1\enu\plotters\Default Windows System Printer.pc3
  4

  6

 40
0.0
 41
0.0
 42
0.0
 43
0.0
 44
0.0
 45
0.0
 46
0.0
 47
0.0
 48
0.0
 49
0.0
140
0.0
141
0.0
142
1.0
143
1.0
 70
   688
 72
     0
 73
     0
 74
     5
  7

 75
    16
147
1.0
148
0.0
149
0.0
100
AcDbLayout
  1
Layout2
 70
     1
 71
     2
 10
0.0
 20
0.0
 11
12.0
 21
9.0
 12
0.0
 22
0.0
 32
0.0
 14
0.0
 24
0.0
 34
0.0
 15
0.0
 25
0.0
 35
0.0
146
0.0
 13
0.0
 23
0.0
 33
0.0
 16
1.0
 26
0.0
 36
0.0
 17
0.0
 27
1.0
 37
0.0
 76
     0
330
D6
  0
LAYOUT
  5
22
102
{ACAD_XDICTIONARY
360
2138
102
}
102
{ACAD_REACTORS
330
1A
102
}
330
1A
100
AcDbPlotSettings
  1

  2
none_device
  4
ISO_A4_(210.00_x_297.00_MM)
  6

 40
7.5
 41
20.0
 42
7.5
 43
20.0
 44
210.0
 45
297.0
 46
11.54999923706054
 47
-13.65000009536743
 48
0.0
 49
0.0
140
0.0
141
0.0
142
1.0
143
8.704084754739808
 70
 11952
 72
     1
 73
     0
 74
     0
  7

 75
     0
147
0.1148885871608098
148
0.0
149
0.0
100
AcDbLayout
  1
Model
 70
     1
 71
     0
 10
0.0
 20
0.0
 11
12.0
 21
9.0
 12
0.0
 22
0.0
 32
0.0
 14
0.0
 24
0.0
 34
0.0
 15
0.0
 25
0.0
 35
0.0
146
0.0
 13
0.0
 23
0.0
 33
0.0
 16
1.0
 26
0.0
 36
0.0
 17
0.0
 27
1.0
 37
0.0
 76
     0
330
1F
331
EA
1001
ACAD_PSEXT
1000
None
1000
None
1000
Not applicable
1000
The layout will not be plotted unless a new plotter configuration name is selected.
1070
     0
  0
MATERIAL
  5
ED
102
{ACAD_XDICTIONARY
360
1F9
102
}
102
{ACAD_REACTORS
330
6A
102
}
330
6A
100
AcDbMaterial
  1
ByBlock
  0
MATERIAL
  5
EC
102
{ACAD_XDICTIONARY
360
1F7
102
}
102
{ACAD_REACTORS
330
6A
102
}
330
6A
100
AcDbMaterial
  1
ByLayer
  0
MATERIAL
  5
EE
102
{ACAD_XDICTIONARY
360
173
102
}
102
{ACAD_REACTORS
330
6A
102
}
330
6A
100
AcDbMaterial
  1
Global
 43
0.0007999999797903
 43
0.0
 43
0.0
 43
0.0
 43
0.0
 43
0.0007999999797903
 43
0.0
 43
0.0
 43
0.0
 43
0.0
 43
1.0
 43
0.0
 43
0.0
 43
0.0
 43
0.0
 43
1.0
 49
0.0007999999797903
 49
0.0
 49
0.0
 49
0.0
 49
0.0
 49
0.0007999999797903
 49
0.0
 49
0.0
 49
0.0
 49
0.0
 49
1.0
 49
0.0
 49
0.0
 49
0.0
 49
0.0
 49
1.0
142
0.0007999999797903
142
0.0
142
0.0
142
0.0
142
0.0
142
0.0007999999797903
142
0.0
142
0.0
142
0.0
142
0.0
142
1.0
142
0.0
142
0.0
142
0.0
142
0.0
142
1.0
144
0.0007999999797903
144
0.0
144
0.0
144
0.0
144
0.0
144
0.0007999999797903
144
0.0
144
0.0
144
0.0
144
0.0
144
1.0
144
0.0
144
0.0
144
0.0
144
0.0
144
1.0
1001
ACAD
1070
    -1
1070
     3
1070
     0
1000

1071
        0
1070
     0
  0
MLEADERSTYLE
  5
12E
102
{ACAD_XDICTIONARY
360
2162
102
}
102
{ACAD_REACTORS
330
12D
102
}
330
12D
100
AcDbMLeaderStyle
170
     2
171
     1
172
     0
 90
        2
 40
0.0
 41
0.0
173
     1
 91
-1056964608
340
14
 92
       -2
290
     1
 42
2.0
291
     1
 43
8.0
  3
Standard
 44
4.0
300

342
11
174
     1
178
     1
175
     1
176
     0
 93
-1056964608
 45
4.0
292
     0
297
     0
 46
4.0
 94
-1056964608
 47
1.0
 49
1.0
140
1.0
293
     1
141
0.0
294
     1
177
     0
142
1.0
295
     0
296
     0
143
3.75
1001
ACAD_MLEADERVER
1070
     2
  0
MLINESTYLE
  5
18
102
{ACAD_REACTORS
330
17
102
}
330
17
100
AcDbMlineStyle
  2
STANDARD
 70
     0
  3

 62
   256
 51
90.0
 52
90.0
 71
     2
 49
0.5
 62
   256
  6
BYLAYER
 49
-0.5
 62
   256
  6
BYLAYER
  0
ACDBPLACEHOLDER
  5
F
102
{ACAD_REACTORS
330
E
102
}
330
E
  0
SCALE
  5
10D
102
{ACAD_REACTORS
330
10C
102
}
330
10C
100
AcDbScale
 70
     0
300
1:1
140
1.0
141
1.0
290
     1
  0
SCALE
  5
1BE
102
{ACAD_REACTORS
330
10C
102
}
330
10C
100
AcDbScale
 70
     0
300
1:2
140
1.0
141
2.0
290
     0
  0
SCALE
  5
1BF
102
{ACAD_REACTORS
330
10C
102
}
330
10C
100
AcDbScale
 70
     0
300
1:4
140
1.0
141
4.0
290
     0
  0
SCALE
  5
1C0
102
{ACAD_REACTORS
330
10C
102
}
330
10C
100
AcDbScale
 70
     0
300
1:5
140
1.0
141
5.0
290
     0
  0
SCALE
  5
1C1
102
{ACAD_REACTORS
330
10C
102
}
330
10C
100
AcDbScale
 70
     0
300
1:8
140
1.0
141
8.0
290
     0
  0
SCALE
  5
1C2
102
{ACAD_REACTORS
330
10C
102
}
330
10C
100
AcDbScale
 70
     0
300
1:10
140
1.0
141
10.0
290
     0
  0
SCALE
  5
1C3
102
{ACAD_REACTORS
330
10C
102
}
330
10C
100
AcDbScale
 70
     0
300
1:16
140
1.0
141
16.0
290
     0
  0
SCALE
  5
1C4
102
{ACAD_REACTORS
330
10C
102
}
330
10C
100
AcDbScale
 70
     0
300
1:20
140
1.0
141
20.0
290
     0
  0
SCALE
  5
1C5
102
{ACAD_REACTORS
330
10C
102
}
330
10C
100
AcDbScale
 70
     0
300
1:30
140
1.0
141
30.0
290
     0
  0
SCALE
  5
1C6
102
{ACAD_REACTORS
330
10C
102
}
330
10C
100
AcDbScale
 70
     0
300
1:40
140
1.0
141
40.0
290
     0
  0
SCALE
  5
1C7
102
{ACAD_REACTORS
330
10C
102
}
330
10C
100
AcDbScale
 70
     0
300
1:50
140
1.0
141
50.0
290
     0
  0
SCALE
  5
1C8
102
{ACAD_REACTORS
330
10C
102
}
330
10C
100
AcDbScale
 70
     0
300
1:100
140
1.0
141
100.0
290
     0
  0
SCALE
  5
1C9
102
{ACAD_REACTORS
330
10C
102
}
330
10C
100
AcDbScale
 70
     0
300
2:1
140
2.0
141
1.0
290
     0
  0
SCALE
  5
1CA
102
{ACAD_REACTORS
330
10C
102
}
330
10C
100
AcDbScale
 70
     0
300
4:1
140
4.0
141
1.0
290
     0
  0
SCALE
  5
1CB
102
{ACAD_REACTORS
330
10C
102
}
330
10C
100
AcDbScale
 70
     0
300
8:1
140
8.0
141
1.0
290
     0
  0
SCALE
  5
1CC
102
{ACAD_REACTORS
330
10C
102
}
330
10C
100
AcDbScale
 70
     0
300
10:1
140
10.0
141
1.0
290
     0
  0
SCALE
  5
1CD
102
{ACAD_REACTORS
330
10C
102
}
330
10C
100
AcDbScale
 70
     0
300
100:1
140
100.0
141
1.0
290
     0
  0
ACDBSECTIONVIEWSTYLE
  5
21A
102
{ACAD_XDICTIONARY
360
2174
102
}
102
{ACAD_REACTORS
330
219
102
}
330
219
100
AcDbModelDocViewStyle
 70
     0
  3
Metric50
290
     0
100
AcDbSectionViewStyle
 70
     0
 71
     0
 90
      102
 71
     1
340
11
 40
5.0
340
0
340
0
 40
5.0
300
I, O, Q, S, X, Z
 40
10.0
 90
        0
 40
2.5
 90
        0
 71
     2
340
16
 90
       25
340
16
 90
       50
 40
5.0
 40
2.5
 40
5.0
 71
     3
340
11
 40
5.0
 90
        0
 40
15.0
 90
        1
300
%<\AcVar ViewSectionStartId>%-%<\AcVar ViewSectionEndId>% (%<\AcVar ViewScale \f "%sn">%)
 71
     4
300
ANSI31
 40
1.0
 90
        0
290
     0
290
     0
 90
        6
 40
0.0
 40
1.570796326794896
 40
0.2617993877991494
 40
1.308996938995747
 40
-0.2617993877991494
 40
1.832595714594046
  0
TABLESTYLE
  5
7F
102
{ACAD_XDICTIONARY
360
162
102
}
102
{ACAD_REACTORS
330
7E
102
}
330
7E
100
AcDbTableStyle
  3
Standard
 70
     0
 71
     0
 40
1.5
 41
1.5
280
     0
281
     0
  7
Standard
140
4.5
170
     2
 62
     0
 63
     7
283
     0
274
    -2
284
     1
 64
     0
275
    -2
285
     1
 65
     0
276
    -2
286
     1
 66
     0
277
    -2
287
     1
 67
     0
278
    -2
288
     1
 68
     0
279
    -2
289
     1
 69
     0
  7
Standard
140
6.0
170
     5
 62
     0
 63
     7
283
     0
274
    -2
284
     1
 64
     0
275
    -2
285
     1
 65
     0
276
    -2
286
     1
 66
     0
277
    -2
287
     1
 67
     0
278
    -2
288
     1
 68
     0
279
    -2
289
     1
 69
     0
  7
Standard
140
4.5
170
     5
 62
     0
 63
     7
283
     0
274
    -2
284
     1
 64
     0
275
    -2
285
     1
 65
     0
276
    -2
286
     1
 66
     0
277
    -2
287
     1
 67
     0
278
    -2
288
     1
 68
     0
279
    -2
289
     1
 69
     0
  0
VISUALSTYLE
  5
F5
102
{ACAD_XDICTIONARY
360
214C
102
}
102
{ACAD_REACTORS
330
EF
102
}
330
EF
100
AcDbVisualStyle
  2
2dWireframe
 70
     4
 71
     0
 72
     2
 73
     1
 90
        0
 40
-0.6
 41
-30.0
 62
     5
 63
     7
 74
     1
 91
        4
 64
     7
 65
   257
 75
     1
175
     1
 42
1.0
 92
        0
 66
   257
 43
1.0
 76
     1
 77
     6
 78
     2
 67
     7
 79
     5
170
     0
171
     0
290
     0
174
     0
 93
        1
 44
0.0
173
     0
291
     0
 45
0.0
1001
ACAD
1000
AcDbSavedByObjectVersion
1070
     0
  0
VISUALSTYLE
  5
F4
102
{ACAD_XDICTIONARY
360
214A
102
}
102
{ACAD_REACTORS
330
EF
102
}
330
EF
100
AcDbVisualStyle
  2
Basic
 70
     7
 71
     1
 72
     0
 73
     1
 90
        0
 40
-0.6
 41
-30.0
 62
     5
 63
     7
 74
     0
 91
        4
 64
     7
 65
   257
 75
     1
175
     1
 42
1.0
 92
        8
 66
     7
 43
1.0
 76
     1
 77
     6
 78
     2
 67
     7
 79
     5
170
     0
171
     0
290
     0
174
     0
 93
        1
 44
0.0
173
     0
291
     1
 45
0.0
1001
ACAD
1000
AcDbSavedByObjectVersion
1070
     0
  0
VISUALSTYLE
  5
FB
102
{ACAD_XDICTIONARY
360
2158
102
}
102
{ACAD_REACTORS
330
EF
102
}
330
EF
100
AcDbVisualStyle
  2
Brighten
 70
    12
 71
     2
 72
     2
 73
     1
 90
        0
 40
-0.6
 41
-30.0
 62
     5
 63
     7
 74
     1
 91
        4
 64
     7
 65
   257
 75
     1
175
     1
 42
1.0
 92
        8
 66
     7
 43
1.0
 76
     1
 77
     6
 78
     2
 67
     7
 79
     5
170
     0
171
     0
290
     0
174
     0
 93
        1
 44
50.0
173
     0
291
     1
 45
0.0
1001
ACAD
1000
AcDbSavedByObjectVersion
1070
     0
  0
VISUALSTYLE
  5
FF
102
{ACAD_XDICTIONARY
360
2160
102
}
102
{ACAD_REACTORS
330
EF
102
}
330
EF
100
AcDbVisualStyle
  2
ColorChange
 70
    16
 71
     2
 72
     2
 73
     3
 90
        0
 40
-0.6
 41
-30.0
 62
     5
 63
     8
 74
     1
 91
        4
 64
     7
 65
   257
 75
     1
175
     1
 42
1.0
 92
        8
 66
     8
 43
1.0
 76
     1
 77
     6
 78
     2
 67
     7
 79
     5
170
     0
171
     0
290
     0
174
     0
 93
        1
 44
0.0
173
     0
291
     1
 45
0.0
1001
ACAD
1000
AcDbSavedByObjectVersion
1070
     0
  0
VISUALSTYLE
  5
F8
102
{ACAD_XDICTIONARY
360
2152
102
}
102
{ACAD_REACTORS
330
EF
102
}
330
EF
100
AcDbVisualStyle
  2
Conceptual
 70
     9
 71
     3
 72
     2
 73
     1
 90
        0
 40
-0.6
 41
-30.0
 62
     5
 63
     7
 74
     2
 91
        2
 64
     7
 65
   257
 75
     1
175
     1
 42
40.0
 92
        8
 66
     7
 43
1.0
 76
     1
 77
     6
 78
     2
 67
     7
 79
     3
170
     0
171
     0
290
     0
174
     0
 93
        1
 44
0.0
173
     0
291
     0
 45
0.0
1001
ACAD
1000
AcDbSavedByObjectVersion
1070
     0
  0
VISUALSTYLE
  5
FA
102
{ACAD_XDICTIONARY
360
2156
102
}
102
{ACAD_REACTORS
330
EF
102
}
330
EF
100
AcDbVisualStyle
  2
Dim
 70
    11
 71
     2
 72
     2
 73
     1
 90
        0
 40
-0.6
 41
-30.0
 62
     5
 63
     7
 74
     1
 91
        4
 64
     7
 65
   257
 75
     1
175
     1
 42
1.0
 92
        8
 66
     7
 43
1.0
 76
     1
 77
     6
 78
     2
 67
     7
 79
     5
170
     0
171
     0
290
     0
174
     0
 93
        1
 44
-50.0
173
     0
291
     1
 45
0.0
1001
ACAD
1000
AcDbSavedByObjectVersion
1070
     0
  0
VISUALSTYLE
  5
1E6
102
{ACAD_XDICTIONARY
360
2168
102
}
102
{ACAD_REACTORS
330
EF
102
}
330
EF
100
AcDbVisualStyle
  2
EdgeColorOff
 70
    22
 71
     2
 72
     2
 73
     0
 90
        0
 40
-0.6
 41
-30.0
 62
     5
 63
     7
 74
     1
 91
        4
 64
     7
 65
   257
 75
     1
175
     1
 42
1.0
 92
        8
 66
     7
 43
1.0
 76
     1
 77
     6
 78
     2
 67
     7
 79
     5
170
     0
171
     0
290
     0
174
     0
 93
        1
 44
0.0
173
     0
291
     1
 45
0.0
1001
ACAD
1000
AcDbSavedByObjectVersion
1070
     0
  0
VISUALSTYLE
  5
FE
102
{ACAD_XDICTIONARY
360
215E
102
}
102
{ACAD_REACTORS
330
EF
102
}
330
EF
100
AcDbVisualStyle
  2
Facepattern
 70
    15
 71
     2
 72
     2
 73
     1
 90
        0
 40
-0.6
 41
-30.0
 62
     5
 63
     7
 74
     1
 91
        4
 64
     7
 65
   257
 75
     1
175
     1
 42
1.0
 92
        8
 66
     7
 43
1.0
 76
     1
 77
     6
 78
     2
 67
     7
 79
     5
170
     0
171
     0
290
     0
174
     0
 93
        1
 44
0.0
173
     0
291
     1
 45
0.0
1001
ACAD
1000
AcDbSavedByObjectVersion
1070
     0
  0
VISUALSTYLE
  5
F0
102
{ACAD_XDICTIONARY
360
2142
102
}
102
{ACAD_REACTORS
330
EF
102
}
330
EF
100
AcDbVisualStyle
  2
Flat
 70
     0
 71
     2
 72
     1
 73
     1
 90
        2
 40
-0.6
 41
30.0
 62
     5
 63
     7
 74
     0
 91
        0
 64
     7
 65
   257
 75
     1
175
     1
 42
1.0
 92
        8
 66
     7
 43
1.0
 76
     1
 77
     6
 78
     2
 67
     7
 79
     5
170
     0
171
     0
290
     0
174
     0
 93
       13
 44
0.0
173
     0
291
     1
 45
0.0
1001
ACAD
1000
AcDbSavedByObjectVersion
1070
     0
  0
VISUALSTYLE
  5
F1
102
{ACAD_XDICTIONARY
360
2144
102
}
102
{ACAD_REACTORS
330
EF
102
}
330
EF
100
AcDbVisualStyle
  2
FlatWithEdges
 70
     1
 71
     2
 72
     1
 73
     1
 90
        2
 40
-0.6
 41
30.0
 62
     5
 63
     7
 74
     1
 91
        0
 64
     7
 65
   257
 75
     1
175
     1
 42
1.0
 92
        0
 66
   257
 43
1.0
 76
     1
 77
     6
 78
     2
 67
     7
 79
     5
170
     0
171
     0
290
     0
174
     0
 93
       13
 44
0.0
173
     0
291
     1
 45
0.0
1001
ACAD
1000
AcDbSavedByObjectVersion
1070
     0
  0
VISUALSTYLE
  5
F2
102
{ACAD_XDICTIONARY
360
2146
102
}
102
{ACAD_REACTORS
330
EF
102
}
330
EF
100
AcDbVisualStyle
  2
Gouraud
 70
     2
 71
     2
 72
     2
 73
     1
 90
        2
 40
-0.6
 41
30.0
 62
     5
 63
     7
 74
     0
 91
        0
 64
     7
 65
   257
 75
     1
175
     1
 42
1.0
 92
        0
 66
     7
 43
1.0
 76
     1
 77
     6
 78
     2
 67
     7
 79
     5
170
     0
171
     0
290
     0
174
     0
 93
       13
 44
0.0
173
     0
291
     1
 45
0.0
1001
ACAD
1000
AcDbSavedByObjectVersion
1070
     0
  0
VISUALSTYLE
  5
F3
102
{ACAD_XDICTIONARY
360
2148
102
}
102
{ACAD_REACTORS
330
EF
102
}
330
EF
100
AcDbVisualStyle
  2
GouraudWithEdges
 70
     3
 71
     2
 72
     2
 73
     1
 90
        2
 40
-0.6
 41
30.0
 62
     5
 63
     7
 74
     1
 91
        0
 64
     7
 65
   257
 75
     1
175
     1
 42
1.0
 92
        0
 66
   257
 43
1.0
 76
     1
 77
     6
 78
     2
 67
     7
 79
     5
170
     0
171
     0
290
     0
174
     0
 93
       13
 44
0.0
173
     0
291
     1
 45
0.0
1001
ACAD
1000
AcDbSavedByObjectVersion
1070
     0
  0
VISUALSTYLE
  5
F7
102
{ACAD_XDICTIONARY
360
2150
102
}
102
{ACAD_REACTORS
330
EF
102
}
330
EF
100
AcDbVisualStyle
  2
Hidden
 70
     6
 71
     1
 72
     2
 73
     2
 90
        0
 40
-0.6
 41
-30.0
 62
     5
 63
     7
 74
     2
 91
        2
 64
     7
 65
   257
 75
     2
175
     1
 42
40.0
 92
        0
 66
   257
 43
1.0
 76
     1
 77
     6
 78
     2
 67
     7
 79
     3
170
     0
171
     0
290
     0
174
     0
 93
        1
 44
0.0
173
     0
291
     0
 45
0.0
1001
ACAD
1000
AcDbSavedByObjectVersion
1070
     0
  0
VISUALSTYLE
  5
1E4
102
{ACAD_XDICTIONARY
360
2164
102
}
102
{ACAD_REACTORS
330
EF
102
}
330
EF
100
AcDbVisualStyle
  2
JitterOff
 70
    20
 71
     2
 72
     2
 73
     0
 90
        0
 40
-0.6
 41
-30.0
 62
     5
 63
     7
 74
     1
 91
        4
 64
     7
 65
   257
 75
     1
175
     1
 42
1.0
 92
       10
 66
     7
 43
1.0
 76
     1
 77
     6
 78
     2
 67
     7
 79
     5
170
     0
171
     0
290
     0
174
     0
 93
        1
 44
0.0
173
     0
291
     1
 45
0.0
1001
ACAD
1000
AcDbSavedByObjectVersion
1070
     0
  0
VISUALSTYLE
  5
FD
102
{ACAD_XDICTIONARY
360
215C
102
}
102
{ACAD_REACTORS
330
EF
102
}
330
EF
100
AcDbVisualStyle
  2
Linepattern
 70
    14
 71
     2
 72
     2
 73
     1
 90
        0
 40
-0.6
 41
-30.0
 62
     5
 63
     7
 74
     1
 91
        4
 64
     7
 65
   257
 75
     7
175
     7
 42
1.0
 92
        8
 66
     7
 43
1.0
 76
     1
 77
     6
 78
     2
 67
     7
 79
     5
170
     0
171
     0
290
     0
174
     0
 93
        1
 44
0.0
173
     0
291
     1
 45
0.0
1001
ACAD
1000
AcDbSavedByObjectVersion
1070
     0
  0
VISUALSTYLE
  5
1E5
102
{ACAD_XDICTIONARY
360
2166
102
}
102
{ACAD_REACTORS
330
EF
102
}
330
EF
100
AcDbVisualStyle
  2
OverhangOff
 70
    21
 71
     2
 72
     2
 73
     0
 90
        0
 40
-0.6
 41
-30.0
 62
     5
 63
     7
 74
     1
 91
        4
 64
     7
 65
   257
 75
     1
175
     1
 42
1.0
 92
        9
 66
     7
 43
1.0
 76
     1
 77
     6
 78
     2
 67
     7
 79
     5
170
     0
171
     0
290
     0
174
     0
 93
        1
 44
0.0
173
     0
291
     1
 45
0.0
1001
ACAD
1000
AcDbSavedByObjectVersion
1070
     0
  0
VISUALSTYLE
  5
F9
102
{ACAD_XDICTIONARY
360
2154
102
}
102
{ACAD_REACTORS
330
EF
102
}
330
EF
100
AcDbVisualStyle
  2
Realistic
 70
     8
 71
     2
 72
     2
 73
     0
 90
        2
 40
-0.6
 41
30.0
 62
     5
 63
     7
 74
     0
 91
        0
 64
     7
 65
   257
 75
     1
175
     1
 42
1.0
 92
        8
 66
   257
 43
1.0
 76
     1
 77
     6
 78
     2
 67
     7
 79
     3
170
     0
171
     0
290
     0
174
     0
 93
       13
 44
0.0
173
     0
291
     0
 45
0.0
1001
ACAD
1000
AcDbSavedByObjectVersion
1070
     0
  0
VISUALSTYLE
  5
1F3
102
{ACAD_XDICTIONARY
360
2172
102
}
102
{ACAD_REACTORS
330
EF
102
}
330
EF
100
AcDbVisualStyle
  2
Shaded
 70
    27
 71
     2
 72
     2
 73
     1
 90
        2
 40
-0.6
 41
30.0
 62
     5
 63
     7
 74
     0
 91
        4
 64
     7
 65
   257
 75
     1
175
     1
 42
1.0
 92
        8
 66
   257
 43
1.0
 76
     1
 77
     6
 78
     2
 67
     8
 79
     3
170
     0
171
     0
290
     0
174
     0
 93
        5
 44
0.0
173
     0
291
     0
 45
0.0
1001
ACAD
1000
AcDbSavedByObjectVersion
1070
     0
  0
VISUALSTYLE
  5
1F2
102
{ACAD_XDICTIONARY
360
2170
102
}
102
{ACAD_REACTORS
330
EF
102
}
330
EF
100
AcDbVisualStyle
  2
Shaded with edges
 70
    26
 71
     2
 72
     2
 73
     1
 90
        2
 40
-0.6
 41
30.0
 62
     5
 63
     7
 74
     1
 91
        2
 64
     7
 65
   257
 75
     2
175
     1
 42
1.0
 92
        8
 66
   257
 43
1.0
 76
     1
 77
     6
 78
     2
 67
     7
 79
     3
170
     0
171
     0
290
     0
174
     0
 93
        5
 44
0.0
173
     0
291
     0
 45
0.0
1001
ACAD
1000
AcDbSavedByObjectVersion
1070
     0
  0
VISUALSTYLE
  5
1EF
102
{ACAD_XDICTIONARY
360
216A
102
}
102
{ACAD_REACTORS
330
EF
102
}
330
EF
100
AcDbVisualStyle
  2
Shades of Gray
 70
    23
 71
     2
 72
     2
 73
     3
 90
        0
 40
-0.6
 41
-30.0
 62
     5
 63
     7
 74
     2
 91
        2
 64
     7
 65
     7
 75
     1
175
     1
 42
40.0
 92
        8
 66
     7
 43
1.0
 76
     1
 77
     6
 78
     2
 67
     7
 79
     3
170
     0
171
     0
290
     0
174
     0
 93
        1
 44
0.0
173
     0
291
     0
 45
0.0
1001
ACAD
1000
AcDbSavedByObjectVersion
1070
     0
  0
VISUALSTYLE
  5
1F0
102
{ACAD_XDICTIONARY
360
216C
102
}
102
{ACAD_REACTORS
330
EF
102
}
330
EF
100
AcDbVisualStyle
  2
Sketchy
 70
    24
 71
     1
 72
     2
 73
     2
 90
        0
 40
-0.6
 41
-30.0
 62
     5
 63
     7
 74
     2
 91
        2
 64
     7
 65
     7
 75
     1
175
     1
 42
40.0
 92
       11
 66
     7
 43
1.0
 76
     1
 77
     6
 78
     2
 67
     7
 79
     6
170
     0
171
     0
290
     0
174
     0
 93
        1
 44
0.0
173
     0
291
     0
 45
0.0
1001
ACAD
1000
AcDbSavedByObjectVersion
1070
     0
  0
VISUALSTYLE
  5
FC
102
{ACAD_XDICTIONARY
360
215A
102
}
102
{ACAD_REACTORS
330
EF
102
}
330
EF
100
AcDbVisualStyle
  2
Thicken
 70
    13
 71
     2
 72
     2
 73
     1
 90
        0
 40
-0.6
 41
-30.0
 62
     5
 63
     7
 74
     1
 91
        4
 64
     7
 65
   257
 75
     1
175
     1
 42
1.0
 92
       12
 66
     7
 43
1.0
 76
     1
 77
     6
 78
     2
 67
     7
 79
     5
170
     0
171
     0
290
     0
174
     0
 93
        1
 44
0.0
173
     0
291
     1
 45
0.0
1001
ACAD
1000
AcDbSavedByObjectVersion
1070
     0
  0
VISUALSTYLE
  5
F6
102
{ACAD_XDICTIONARY
360
214E
102
}
102
{ACAD_REACTORS
330
EF
102
}
330
EF
100
AcDbVisualStyle
  2
Wireframe
 70
     5
 71
     0
 72
     2
 73
     0
 90
        0
 40
-0.6
 41
-30.0
 62
     5
 63
     7
 74
     1
 91
        4
 64
     7
 65
   257
 75
     1
175
     1
 42
1.0
 92
        0
 66
   257
 43
1.0
 76
     1
 77
     6
 78
     2
 67
     7
 79
     3
170
     0
171
     0
290
     0
174
     0
 93
        1
 44
0.0
173
     0
291
     0
 45
0.0
1001
ACAD
1000
AcDbSavedByObjectVersion
1070
     0
  0
VISUALSTYLE
  5
1F1
102
{ACAD_XDICTIONARY
360
216E
102
}
102
{ACAD_REACTORS
330
EF
102
}
330
EF
100
AcDbVisualStyle
  2
X-Ray
 70
    25
 71
     2
 72
     2
 73
     1
 90
        1
 40
0.5
 41
-30.0
 62
     5
 63
     7
 74
     1
 91
        0
 64
     7
 65
   257
 75
     1
175
     1
 42
1.0
 92
        8
 66
     7
 43
1.0
 76
     1
 77
     6
 78
     2
 67
     7
 79
     3
170
     0
171
     0
290
     0
174
     0
 93
       13
 44
0.0
173
     0
291
     0
 45
0.0
1001
ACAD
1000
AcDbSavedByObjectVersion
1070
     0
  0
DICTIONARYVAR
  5
146
102
{ACAD_REACTORS
330
5E
102
}
330
5E
100
DictionaryVariables
280
     0
  1
1:1
  0
DICTIONARYVAR
  5
259
102
{ACAD_REACTORS
330
5E
102
}
330
5E
100
DictionaryVariables
280
     0
  1
3.500000
  0
DICTIONARYVAR
  5
25A
102
{ACAD_REACTORS
330
5E
102
}
330
5E
100
DictionaryVariables
280
     0
  1
acadiso.lin
  0
DICTIONARYVAR
  5
145
102
{ACAD_REACTORS
330
5E
102
}
330
5E
100
DictionaryVariables
280
     0
  1
STANDARD
  0
DICTIONARYVAR
  5
84
102
{ACAD_REACTORS
330
5E
102
}
330
5E
100
DictionaryVariables
280
     0
  1
STANDARD
  0
DICTIONARYVAR
  5
227
102
{ACAD_REACTORS
330
5E
102
}
330
5E
100
DictionaryVariables
280
     0
  1
Metric50
  0
DICTIONARYVAR
  5
228
102
{ACAD_REACTORS
330
5E
102
}
330
5E
100
DictionaryVariables
280
     0
  1
Metric50
  0
DICTIONARYVAR
  5
5F
102
{ACAD_REACTORS
330
5E
102
}
330
5E
100
DictionaryVariables
280
     0
  1
2
  0
DICTIONARYVAR
  5
63
102
{ACAD_REACTORS
330
5E
102
}
330
5E
100
DictionaryVariables
280
     0
  1
1
  0
DICTIONARYVAR
  5
20E3
102
{ACAD_REACTORS
330
5E
102
}
330
5E
100
DictionaryVariables
280
     0
  1
0
  0
DICTIONARYVAR
  5
1AE
102
{ACAD_REACTORS
330
5E
102
}
330
5E
100
DictionaryVariables
280
     0
  1
0
  0
DICTIONARYVAR
  5
1AF
102
{ACAD_REACTORS
330
5E
102
}
330
5E
100
DictionaryVariables
280
     0
  1
0
  0
DICTIONARYVAR
  5
20E1
102
{ACAD_REACTORS
330
5E
102
}
330
5E
100
DictionaryVariables
280
     0
  1
2
  0
DICTIONARYVAR
  5
20E0
102
{ACAD_REACTORS
330
5E
102
}
330
5E
100
DictionaryVariables
280
     0
  1
1
  0
DICTIONARYVAR
  5
2133
102
{ACAD_REACTORS
330
5E
102
}
330
5E
100
DictionaryVariables
280
     0
  1
80.000000
  0
DICTIONARYVAR
  5
2132
102
{ACAD_REACTORS
330
5E
102
}
330
5E
100
DictionaryVariables
280
     0
  1
5.000000
  0
DICTIONARYVAR
  5
20E2
102
{ACAD_REACTORS
330
5E
102
}
330
5E
100
DictionaryVariables
280
     0
  1
127
  0
DICTIONARYVAR
  5
2134
102
{ACAD_REACTORS
330
5E
102
}
330
5E
100
DictionaryVariables
280
     0
  1
2
  0
DICTIONARY
  5
2176
330
21C
100
AcDbDictionary
280
     1
281
     1
  3
ACAD_XREC_ROUNDTRIP
360
2177
  0
DICTIONARY
  5
213B
330
D3
100
AcDbDictionary
280
     1
281
     1
  3
ACAD_XREC_ROUNDTRIP
360
213C
  0
DICTIONARY
  5
213D
330
D7
100
AcDbDictionary
280
     1
281
     1
  3
ACAD_XREC_ROUNDTRIP
360
213E
  0
DICTIONARY
  5
2138
330
22
100
AcDbDictionary
280
     1
281
     1
  3
ACAD_XREC_ROUNDTRIP
360
2139
  0
DICTIONARY
  5
1F9
330
ED
100
AcDbDictionary
280
     1
281
     1
  3
ACAD_XREC_ROUNDTRIP
360
2140
  3
FBXASSET
360
1FA
  0
DICTIONARY
  5
1F7
330
EC
100
AcDbDictionary
280
     1
281
     1
  3
ACAD_XREC_ROUNDTRIP
360
213F
  3
FBXASSET
360
1F8
  0
DICTIONARY
  5
173
330
EE
100
AcDbDictionary
280
     1
281
     1
  3
ACAD_XREC_ROUNDTRIP
360
2141
  3
BUMPTILE
360
175
  3
DIFFUSETILE
360
174
  3
FBXASSET
360
1FB
  3
OPACITYTILE
360
176
  3
REFLECTIONTILE
360
177
  0
DICTIONARY
  5
2162
330
12E
100
AcDbDictionary
280
     1
281
     1
  3
ACAD_XREC_ROUNDTRIP
360
2163
  0
DICTIONARY
  5
2174
330
21A
100
AcDbDictionary
280
     1
281
     1
  3
ACAD_XREC_ROUNDTRIP
360
2175
  0
DICTIONARY
  5
162
330
7F
100
AcDbDictionary
280
     1
281
     1
  3
ACAD_ROUNDTRIP_2008_TABLESTYLE_CELLSTYLEMAP
360
2135
  3
ACAD_XREC_ROUNDTRIP
360
213A
  0
DICTIONARY
  5
214C
330
F5
100
AcDbDictionary
280
     1
281
     1
  3
ACAD_XREC_ROUNDTRIP
360
214D
  0
DICTIONARY
  5
214A
330
F4
100
AcDbDictionary
280
     1
281
     1
  3
ACAD_XREC_ROUNDTRIP
360
214B
  0
DICTIONARY
  5
2158
330
FB
100
AcDbDictionary
280
     1
281
     1
  3
ACAD_XREC_ROUNDTRIP
360
2159
  0
DICTIONARY
  5
2160
330
FF
100
AcDbDictionary
280
     1
281
     1
  3
ACAD_XREC_ROUNDTRIP
360
2161
  0
DICTIONARY
  5
2152
330
F8
100
AcDbDictionary
280
     1
281
     1
  3
ACAD_XREC_ROUNDTRIP
360
2153
  0
DICTIONARY
  5
2156
330
FA
100
AcDbDictionary
280
     1
281
     1
  3
ACAD_XREC_ROUNDTRIP
360
2157
  0
DICTIONARY
  5
2168
330
1E6
100
AcDbDictionary
280
     1
281
     1
  3
ACAD_XREC_ROUNDTRIP
360
2169
  0
DICTIONARY
  5
215E
330
FE
100
AcDbDictionary
280
     1
281
     1
  3
ACAD_XREC_ROUNDTRIP
360
215F
  0
DICTIONARY
  5
2142
330
F0
100
AcDbDictionary
280
     1
281
     1
  3
ACAD_XREC_ROUNDTRIP
360
2143
  0
DICTIONARY
  5
2144
330
F1
100
AcDbDictionary
280
     1
281
     1
  3
ACAD_XREC_ROUNDTRIP
360
2145
  0
DICTIONARY
  5
2146
330
F2
100
AcDbDictionary
280
     1
281
     1
  3
ACAD_XREC_ROUNDTRIP
360
2147
  0
DICTIONARY
  5
2148
330
F3
100
AcDbDictionary
280
     1
281
     1
  3
ACAD_XREC_ROUNDTRIP
360
2149
  0
DICTIONARY
  5
2150
330
F7
100
AcDbDictionary
280
     1
281
     1
  3
ACAD_XREC_ROUNDTRIP
360
2151
  0
DICTIONARY
  5
2164
330
1E4
100
AcDbDictionary
280
     1
281
     1
  3
ACAD_XREC_ROUNDTRIP
360
2165
  0
DICTIONARY
  5
215C
330
FD
100
AcDbDictionary
280
     1
281
     1
  3
ACAD_XREC_ROUNDTRIP
360
215D
  0
DICTIONARY
  5
2166
330
1E5
100
AcDbDictionary
280
     1
281
     1
  3
ACAD_XREC_ROUNDTRIP
360
2167
  0
DICTIONARY
  5
2154
330
F9
100
AcDbDictionary
280
     1
281
     1
  3
ACAD_XREC_ROUNDTRIP
360
2155
  0
DICTIONARY
  5
2172
330
1F3
100
AcDbDictionary
280
     1
281
     1
  3
ACAD_XREC_ROUNDTRIP
360
2173
  0
DICTIONARY
  5
2170
330
1F2
100
AcDbDictionary
280
     1
281
     1
  3
ACAD_XREC_ROUNDTRIP
360
2171
  0
DICTIONARY
  5
216A
330
1EF
100
AcDbDictionary
280
     1
281
     1
  3
ACAD_XREC_ROUNDTRIP
360
216B
  0
DICTIONARY
  5
216C
330
1F0
100
AcDbDictionary
280
     1
281
     1
  3
ACAD_XREC_ROUNDTRIP
360
216D
  0
DICTIONARY
  5
215A
330
FC
100
AcDbDictionary
280
     1
281
     1
  3
ACAD_XREC_ROUNDTRIP
360
215B
  0
DICTIONARY
  5
214E
330
F6
100
AcDbDictionary
280
     1
281
     1
  3
ACAD_XREC_ROUNDTRIP
360
214F
  0
DICTIONARY
  5
216E
330
1F1
100
AcDbDictionary
280
     1
281
     1
  3
ACAD_XREC_ROUNDTRIP
360
216F
  0
XRECORD
  5
2177
102
{ACAD_REACTORS
330
2176
102
}
330
2176
100
AcDbXrecord
280
     1
102
DISPLAYNAME
  1
Metric50
102
FLAGS
 90
        0
  0
XRECORD
  5
213C
102
{ACAD_REACTORS
330
213B
102
}
330
213B
100
AcDbXrecord
280
     1
102
SHADEPLOT
 70
     0
102
SHADEPLOTRESLEVEL
 70
     2
102
SHADEPLOTCUSTOMDPI
 70
   300
  0
XRECORD
  5
213E
102
{ACAD_REACTORS
330
213D
102
}
330
213D
100
AcDbXrecord
280
     1
102
SHADEPLOT
 70
     0
102
SHADEPLOTRESLEVEL
 70
     2
102
SHADEPLOTCUSTOMDPI
 70
   300
  0
XRECORD
  5
2139
102
{ACAD_REACTORS
330
2138
102
}
330
2138
100
AcDbXrecord
280
     1
102
SHADEPLOT
 70
     0
102
SHADEPLOTRESLEVEL
 70
     2
102
SHADEPLOTCUSTOMDPI
 70
   300
  0
XRECORD
  5
2140
102
{ACAD_REACTORS
330
1F9
102
}
330
1F9
100
AcDbXrecord
280
     1
102
MATERIAL
148
0.0
149
0.0
149
0.0
 93
        0
 94
       63
282
     0
 72
     1
 77
     1
171
     1
175
     1
179
     1
273
     0
  0
XRECORD
  5
1FA
102
{ACAD_REACTORS
330
1F9
102
}
330
1F9
100
AcDbXrecord
280
     1
 70
     1
 90
429727718
  1
D62C5603-E3A1-4AEA-B7FB-FE5D8D0755AF
310
504B03040A0000080000CC70623B3DEE336E79000000790000001B0000006175746F6465736B2D64657369676E2D7061636B6167652E786D6C3C3F786D6C2076657273696F6E3D22312E302220656E636F64696E673D227574662D3822203F3E3C666F726D6174733E3C666F726D61743E687474703A2F2F736368656D612E
310
6175746F6465736B2E636F6D2F64657369676E2D7061636B6167652F323030393C2F666F726D61743E3C2F666F726D6174733E504B0304140006080800CC70623BD486FD9CA0000000F4000000130000005B436F6E74656E745F54797065735D2E786D6C7D8EC10E82300C865F65E91D8A1E8C310C0EEA1BF002731658846E
310
D98AC1B77784ABF1D8FE5FBFBF75BBCE937A534CCEB38643598122B6FEE978D0B0485F9C41B54DDD7D022595594E1A469170414C76A4D9A4D207E29CF43ECE46F218070CC6BECC4078ACAA135ACF422C856C0E68EA1BF5669944DDD7BCDE7B1F8E415D77AECB980613C2E4AC91FC167A2B244592486606FC29C8FD7F045B9A
310
EF7053A7E60B504B0304140006080800CC70623B853B8169EB0000007C01000008000000636F72652E786D6C8D90416EC3201045AF62CDB6C206821CC7C244919D9CA01740401C94182C03558F5F9C3852BBEB6A467FFE9B197D7EFC9E1EC5975982F5AE035262288C535E5B377690E21535501C055FBC8FBF6C503839990E
310
5619041F179FE64D52DE45E362569DD7661365082642A11EB9E920A89B99642953CC8E702F67A9EE7234257977194EC9EAE275C4EABCCF5EAD5940D4AC6F0E35A568B8F43562CD7046CD199FD07E60174276A7BE677B5EADB0E0D14EEFFB6A31321A0D82627C4084204C3F096B71DD52F6819B16635EADF63F509AF53FA164
310
5DDCD1EDDD17164090FCC8732078B56691CB33A85CD7DCC40F504B0304140006080800CC70623B55019EA25F0000007C00000007000000636E782E786D6C4DCB3B0E80201045D1AD90E915ED2CF8AC45050C11660C8261F98AB1B07AC9C97D42D718D865D3E909258CFD00CCE24AC6E326A164D74DC0B4128928FF32603847
310
2BA13128B1252AC747C6BAB984FC68F0B87FE8960A5C09FE86CFB69FBA01504B0304140006080800CC70623BDBABAAF470010000D40300000C0000006662782F636F72652E786D6CC553D16E823014FD95A6AF4B694182CC941A83FA05FB810A9511A125A5257EFE2E82712ECEB8A7F100CD39F7F69E734AF9FADC366850B6
310
AF8DCE7018308C942E4C59EB2AC3DE1D498AD15A706B8CFB56869196ADCAF00863C12B6B7C374385D14E6907A836A59A41D9F7CA615434B0C8705F7CAA5606D23BA8E84F41278B93AC54100640439DE0BDB320004D43C63716C7C399D30917DCFBBA9CD9BA8469F5B156168B24CED3F7248AC8769F27244EB73B92EED8862C
310
B7F13E0C179B3C8F979C8ECD82BBBABDAA2BAC924E9558448CBD9330242CFA08E3154B5651FCC6D215639C8EE5774DBE2B5F6CF2B5768B68963BB5F5588420E442FC700B1139D4CB01F450C1E918227C2E09DF070D8140C84E1E9AAB8F1340832A9CB13130A5F1376A908D57309505ECF2A0DF179C4E9D30F5B239B87E3823
310
7A79C6F31DE1A8A5AEC08474B03C7837EAE4938639B44E5932B833D2C6B6B279CDC613877FA26EE21F4A2A4C63EC7F29A2F301D1F9F7A0E37D145F504B0304140006080800CC70623B9C113CC27E0000009D0000000B0000006662782F636E782E786D6C4DCCDF0A83201C86E15B91DFB94BFB330DD428C8FB886521330DA7
310
6397BF1A1DECE883878F57749FCDA1B7892F1BBC047A23808C7F84D9FA55424E0BE6803A256208E9EF06C84F9B91703228B1C690F78B66B34CD9A5439DF5CF0BFBF65E35BCA1B8D6A5C6F540381E886698B5741C695F9503EBA150A2F8958E3DC3EA0B504B0304140006080800CC70623B7DF2F77C2A010000120200003100
310
00006662782F41393633353835312D344632462D344230382D423046372D3739314545314133324237412F636F72652E786D6C8D51DB8EC22014FC15C2939B0D2DB4B45643319AE817EC0F6041255A68B86CFCFC856D4D76DF7CE190393373060EDB3DC707F856CE6B6B7A480A0C81328395DA5C7B18C3057510EC3873D686
310
3F34088C18550F330C39BB3A1BA7051AAC09CA84841A2BD5020AEF55806078A44B0FFD7053A328440C89E1EFC52486BBB8AA8214A99D789CF9E05200300FC927E4FB4D5B375D43103D5527440FB843077C5AA3F5861C8F645F5787F59E95B390B318B55CE45AA638FAA2957BD7248B390B7A7CC51F9C124149C82B8C378810
310
84AB2F42B7B8DD56F413775B8C5999E9FF4471926F8AA236A1AE96B8B3CC434E5839373893369E1FAF30EA395917409EB7F26AF8801C171837A4A6AC9C89E9F9C9B1A58BA30FD6A5EF5DDDCF894B9AD9B6A59C957943A9FCAE2FD5BC4DFE03504B0304140006080800CC70623BAD7543B64E01000033030000300000006662
310
782F41393633353835312D344632462D344230382D423046372D3739314545314133324237412F636E782E786D6CD593CD6EC32010845F0571AD6CE3D48AD20813A9873E410FBD12D82434182C7EAAE6EDBB2424CD25871E7B41D6EC30B3FA84F9E67BB2E40B4234DE8DB46F1925E094D7C6ED479AD3AE5951B2113C789FEE
310
6C943839C1488B4C05DF079FE72A69D8C96C13AAD6B8631503449F83828872B949AC57D26200B826A308D316B4064D6E46FCDA41C05550DC9E483A00797BFD207EFB092A45DE9514C1BBD22178396BD39D891265658C238DEA00936C654E5E433CB65A26D9F6EDB5EBC14EBF49A45CB856E66048291F6939A9A81BB5C89177
310
38143CA680F4AA299D66A042CEB3354A2684DC9D8D178FE0D9B8B41CAAD720F880EE7EF93C0C18769E099ECC04D5A102C8049A8A05632F4DDF376CF1DE0F6BB65C2F8627B65A33C6BB62177CEBBDAD973006829F89F22E814B54F4BC2BE347F8AA8F681390B50FA73F804400B5F542E796F19FF974E7F78DB802FE05E20750
310
4B0304140006080800CC70623BE75B7789680500003C100000340000006662782F41393633353835312D344632462D344230382D423046372D3739314545314133324237412F6F626A656374732E786D6CAD575B8F9B3818FD2B887D06C22499CB8AA1CA655245D5B455A356FB305264C061D8018C6C3393D95FBFC7600890
310
A4CD5EF210B0B1BFEBF98E3F7B1FF6596ABC522E1296DF9BAE3D320D9A872C4AF2F8DE2CE5CEBA358D0FBEC719939D65A691938CDE9B6ADAF4BD98B3B2D05311DD91329583D9D5FC0F438434A7A611A644887B5384CF34233629258BA878B12322891DEFF6B66BD70BFB62634E8AE781D082709A4B588AF91C528CDA28B73F
310
1C998EEF39EABBEFA97FBD6A7C7E9553F9D3D79FE442923C3C523610337627CB87ABE99D359D4CC6D6E4FACAB5E6ABF9D2726FC6A3C5F56271377BB88362213924694B38DD99FE47C48627A1E7D49F5A8BB5E1A74C0A599ED3B0F21F1E56366B89112D681E218F0915D0D6F17AD41FBA2A369DCF6335D62ABBD39779D5DDD1
310
11D4D8DE3CBB96B2E04FB8202E41051754A1AA8E8F76B4C6DFE810B580B1547F4B84911149794252234D024EF8BBE963A95AE27B3D310A9D5C215C7960FAEE415ED75694C6AFB17BCACA5D99A60A9AA65F217B0BFC53292ACB92BF283FAD0D3621576592CB5BED907C2FA8E9DF794E35E97BEA31BED21FEB401ABB94C44839
310
DCACBF0E1C5DA8DA5B2F4DFFD32AD86F543D9E565E7056502E157C00AD2671CD534549AB752FCA9CDA00677A313F04E51B22FF19E57B300579E3C97EB29F682D92935CEC18CF901B7B54FD8C51F362B56FC72FE0B3C1EAE335EDCCBF5AEC39ADB17DC238973F804BA5E6F6BFE7AF1FB32E523BE9F3BD571418E3631DCA4D48
310
5250CF639223210A9446CA30052EDF057BD35F8329C1ECD84552BF0DC8D18BE7BCE23BFE6BD960AB4A7DE79923A103BEBD80F911CBAA2C60DB19B01CF164A5583B772EE6D3FFA56666CBCDA74DC97724A48F9A58967497E489C4D979006FD7A05E227A1EBDD0F737C623387A9C844D3709995625106D157315F8B8392CD4E0
310
A0B9A720C4BE9829CEF37EA1E13111214D53925356365ADA634861B52519DD27A00AEB808EAF0628E6F435519D446F45CF2C9CF5214F0A15B2F6D06B79DA3EE3CBF7F56780D2F4E7EF73A0F5E5B02A38D07DC852C6B7C1FBB6664213E0C39E3EBA7FF4E1AD23EA2829407C85E586727488B751B2DB9502BC7B228A3FD68B6E
310
A65A22397E690AA8D158D7E404EC8CDA235CC3B7D1898680131CEC2CDF2638C65196279577750F15884AEE19F94199155B92B13297978469D4F8D358DF0AEF7631E28DC8F0D9F437D5D39A83B2231A1D52D543813A824EF8D44BCFF2FA6A31BD1E8DAD87F1CCB526B3879935BF59CDADD5C37479BB1CDD4CA7B3556B516589
310
EF352754B706114D9C885EC9131DE6EFEB43D99AFE2391C2F958179413D7CFEF6B1B6DB1E7600F00DE6E5C67454A339A4BA2E0FBA85ED26F045D454F463DBFCE484C2F90F2E5E3666003662ED8F755951A7D1BECD5B30B550B2785C8E7320B7292A4838DDA71BBC863ED7613CAF659337A3354231D4FF4A182A54904C2898C
310
98B28C4AD0CE056CCF332A80986E571EE9DBC305BB5FEB7E509220A58D25CF042D712A806AC0AD0C657FDEF80D2D9CEAA2EE4D1C76F60BFE74219A06527D6F82DF6412526107381E55E353090704D085B52408A8913C4ED159D79BDA71BB4BC506F4831350EB6F975CD22D69BF7AC49B91A2C0A9DDA3D5CA36AD20FC478E37
310
E61844E2352865EBCB61A275A65283CAAA9DD27703B4102F5AF51EF5F573B75CBB5AD38BC845F7A49F82A0966A49C2E3EA5EA0ECD326CD965F1DB402C6FA8B51A4658C5C5E2EC9E214602E55810345408596591009A82E7E7FFACA19EEA299B14A0081A705CB3296EBC14CDF658DCD336EA6D1136881AAEB87B81AB9EE53D5
310
F5EB8BC8362082DA24122F98680A4E7930C01A0079749CEA14382A0783E5EBA5A10F8C098456A03D6A4AEB6BB881E2513747552A5DB22C7EDAF83BD5528081A365F7FF06504B0304140006080000CC70623B000000000000000000000000350000006662782F41393633353835312D344632462D344230382D423046372D37
310
39314545314133324237412F76657274696365732E62696E504B0304140006080800CC70623BF270F1330600000004000000360000006662782F41393633353835312D344632462D344230382D423046372D3739314545314133324237412F747269616E676C65732E62696E636660600000504B0304140006080000CC7062
310
3B000000000000000000000000370000006662782F41393633353835312D344632462D344230382D423046372D3739314545314133324237412F617474726962757465732E62696E504B0304140006080800CC70623B08DA0BD19000000041010000360000006662782F41393633353835312D344632462D344230382D4230
310
46372D3739314545314133324237412F6469726563746F72792E786D6C858F410AC3201045AF22B36F53E9A60B35CBEEBAE80D244E44489C6234F4F835464A48035D0DF398FF9F8AF63D0E6CC63039F212F8F9020C7D47C6792B21C5FE7403D62A1188E2E60C98D7234A5830286103A55745067B9D86B8A3CF9C7F90C11DE6
310
07FB144396D7B6A82D282E9A152AD114D5EF2CB866EEE831B8EEA07A7BB5A8D7D61A2BAAEB7FD5F70921FF497D00504B0304140006080800CC70623BEDD1DC58FD000000A00100003B0000006662782F41393633353835312D344632462D344230382D423046372D3739314545314133324237412F7265736F75726365732F
310
636F72652E786D6C8D504B6E833010BD0A9A6D65B00922041947112427E8052C33A156828DFCA97AFC9A40A576D7CDCCE87D344F8F9FBFE667F689CE6B6B3A6039850C8DB2A336530731DC4903D95970676DF82583CCC8193B5861107C72362E3BA4AC096842428D1D7107A5F7182053CF7474E0D507CE32973124857FE48B
310
540F3961CEF244279DE03EB81420DB9EAC1384436FA353E879B1B182C7A8C75DA3C7F453DF353A1075D537A7BA6464B8F535A99AE14A9A2BBD90E350DD183B5CFABE3AF262350B1EF4FC9351399401471025A527C218A1E53BAB5A5AB765F5469B96525EACF23FA6B88CFF34456DC2A1DCE36E360F82A5202F42F062ED2BAD
310
579969AFDD8A6F504B010214000A0000080000CC70623B3DEE336E79000000790000001B00000000000000000000000000000000006175746F6465736B2D64657369676E2D7061636B6167652E786D6C504B01021400140006080800CC70623BD486FD9CA0000000F40000001300000000000000000000000000B20000005B
310
436F6E74656E745F54797065735D2E786D6C504B01021400140006080800CC70623B853B8169EB0000007C010000080000000000000000000000000083010000636F72652E786D6C504B01021400140006080800CC70623B55019EA25F0000007C000000070000000000000000000000000094020000636E782E786D6C504B
310
01021400140006080800CC70623BDBABAAF470010000D40300000C00000000000000000000000000180300006662782F636F72652E786D6C504B01021400140006080800CC70623B9C113CC27E0000009D0000000B00000000000000000000000000B20400006662782F636E782E786D6C504B01021400140006080800CC70
310
623B7DF2F77C2A010000120200003100000000000000000000000000590500006662782F41393633353835312D344632462D344230382D423046372D3739314545314133324237412F636F72652E786D6C504B01021400140006080800CC70623BAD7543B64E010000330300003000000000000000000000000000D2060000
310
6662782F41393633353835312D344632462D344230382D423046372D3739314545314133324237412F636E782E786D6C504B01021400140006080800CC70623BE75B7789680500003C10000034000000000000000000000000006E0800006662782F41393633353835312D344632462D344230382D423046372D3739314545
310
314133324237412F6F626A656374732E786D6C504B01021400140006080000CC70623B0000000000000000000000003500000000000000000000000000280E00006662782F41393633353835312D344632462D344230382D423046372D3739314545314133324237412F76657274696365732E62696E504B01021400140006
310
080800CC70623BF270F133060000000400000036000000000000000000000000007B0E00006662782F41393633353835312D344632462D344230382D423046372D3739314545314133324237412F747269616E676C65732E62696E504B01021400140006080000CC70623B0000000000000000000000003700000000000000
310
000000000000D50E00006662782F41393633353835312D344632462D344230382D423046372D3739314545314133324237412F617474726962757465732E62696E504B01021400140006080800CC70623B08DA0BD1900000004101000036000000000000000000000000002A0F00006662782F41393633353835312D344632
310
462D344230382D423046372D3739314545314133324237412F6469726563746F72792E786D6C504B01021400140006080800CC70623BEDD1DC58FD000000A00100003B000000000000000000000000000E1000006662782F41393633353835312D344632462D344230382D423046372D3739314545314133324237412F7265
310
736F75726365732F636F72652E786D6C504B0506000000000E000E0080040000641100000000
  0
XRECORD
  5
213F
102
{ACAD_REACTORS
330
1F7
102
}
330
1F7
100
AcDbXrecord
280
     1
102
MATERIAL
148
0.0
149
0.0
149
0.0
 93
        0
 94
       63
282
     0
 72
     1
 77
     1
171
     1
175
     1
179
     1
273
     0
  0
XRECORD
  5
1F8
102
{ACAD_REACTORS
330
1F7
102
}
330
1F7
100
AcDbXrecord
280
     1
 70
     1
 90
429727718
  1
30362254-06B7-45E0-A893-8CFA70E3D6BC
310
504B03040A0000080000CC70623B3DEE336E79000000790000001B0000006175746F6465736B2D64657369676E2D7061636B6167652E786D6C3C3F786D6C2076657273696F6E3D22312E302220656E636F64696E673D227574662D3822203F3E3C666F726D6174733E3C666F726D61743E687474703A2F2F736368656D612E
310
6175746F6465736B2E636F6D2F64657369676E2D7061636B6167652F323030393C2F666F726D61743E3C2F666F726D6174733E504B0304140006080800CC70623BD486FD9CA0000000F4000000130000005B436F6E74656E745F54797065735D2E786D6C7D8EC10E82300C865F65E91D8A1E8C310C0EEA1BF002731658846E
310
D98AC1B77784ABF1D8FE5FBFBF75BBCE937A534CCEB38643598122B6FEE978D0B0485F9C41B54DDD7D022595594E1A469170414C76A4D9A4D207E29CF43ECE46F218070CC6BECC4078ACAA135ACF422C856C0E68EA1BF5669944DDD7BCDE7B1F8E415D77AECB980613C2E4AC91FC167A2B244592486606FC29C8FD7F045B9A
310
EF7053A7E60B504B0304140006080800CC70623B1EC5D7A3EB0000007C01000008000000636F72652E786D6C8D90416EC3201045AF82665B6103C6756C6122AB4D4ED00B204C5C94182C03558F5F9C3852BBEB6A467FFE9B197D71FC9E6FE8CBACC17AD7032D0820E3B41FAD9B7A48F1820F808E52ACDEC75F36404ECDA687
310
4D0629A6D5A76597B477D1B89855E747B38B2A041301E95B6E7A08FAD3CCAA50296647B8168BD2573599823EBB0CA76447F43862C7BCCF5EAC59410E4DDD9C7973C2755553CCCFA4C603E3040F1565ED3B1FDE4E432BCA0D9622DAF9795FAF464533826484B498524CD807E51D79ED187F21878E10516EF63F505AC67F42C9
310
BA58B1FDDD071640D2FCC87D2045B96591CB3DA85CB7DCE40F504B0304140006080800CC70623B55019EA25F0000007C00000007000000636E782E786D6C4DCB3B0E80201045D1AD90E915ED2CF8AC45050C11660C8261F98AB1B07AC9C97D42D718D865D3E909258CFD00CCE24AC6E326A164D74DC0B4128928FF32603847
310
2BA13128B1252AC747C6BAB984FC68F0B87FE8960A5C09FE86CFB69FBA01504B0304140006080800CC70623B8C9102E971010000D40300000C0000006662782F636F72652E786D6CC5535B6E833010BC8AE5DF0A6C08340F1947A84D4ED00B38C6A128602363A31CBFCB234A53A551FA553EC09AD9F5CE8C31DB9E9B1AF5CA
310
7695D1198E428A91D2D214952E33ECDD315861B4E5CC1AE3BE9561A445A3323CC098B3D21ADFCE9034DA29ED00D5A6503328BA4E398C640D8B0C77F253352214DE4145770A5B214FA2546114020D759C75CE8200340D19DE981F0F6746269C33EFAB6266AB02A655C74A59CCF365BADC27CB5D902ED22848F6340DF238A141
310
BE88E2F57B92BFEDF23523433367AE6A2EEAA455C2A902F398D2751045018D3FA264435F3771F242571B4A1919CA6F9A7C5B3CD9E42BED16F12C776AEB308F40C848FC700B1139D4891EF410CEC810227CC6846F8386402064270EF5C5C709A05E49676C024C61FC95EA45ED154CA5211D1FF4FB8291A913A68E9B83EBBB33
310
E2A7673CDE118E5AE8124C0807CB8377834E366998436B950D7A7746DAD846D4CFD978E0F04FD455FC5D49D2D4C6FE9722321F10997F0F32DC47FE05504B0304140006080800CC70623BFFEA85907E0000009D0000000B0000006662782F636E782E786D6C4DCCD10A83201886E15B91FFDC95D95A811AB6F23E625948A6C3
310
E9D8E5AF46073BFAE0E1E365ED67B3E8ADC3CB78C7815C7240DA3DFC64DCC221C519D7805AC182F7F1EF06C88D9BE6703008B6049F9E274D7A1E938DBB5AE3D6131B2589BA0D3D965551E0B2EA732C9B9A624AAEB41E3A557677029960D9AFB4EF11165F504B0304140006080800CC70623B4FEEA4082C0100001202000031
310
0000006662782F39464131463745442D413632322D343644302D413938332D3331353338454246344243312F636F72652E786D6C8D515B6EC32010BC0AE2AB55850DD871ED0813254D72825EC00192A2C460F1A872FC42ED48ED5F7E00CDCECCCEB26C731F6FE05B39AFADE921293004CA082BB5B9F43086336A21D870E6AC
310
0D7F68109861543DCC30E4ECE26C9C164858139409093556AA051CBC570102714B8F1E7AF1A5C6A11862480C7F2DA6415C878B2A4891CA89C7990F2E050073937C42DE1DB7E4F87ED8A36D4329AA9B3D46DBAEAD504556557BD81DEBDD0761E52CE42C462D17B996298E3E6BE59E35C962CE821E1FF18553435012728A7187
310
0841987E927A8D9B35ADDF70BBC6989599FE4F1427F9A4286A132ABAC49D651EF234CD5CE04CDA78BA3DC2A8FB645D00B9DF8B57E215725C60BCA2A463E54C4CE327C7A65E1C7DB02E7DEFCBF594B864C5CA6CDBD49C957943E9FA5D5FBAF336F90F504B0304140006080800CC70623BAD7543B64E01000033030000300000
310
006662782F39464131463745442D413632322D343644302D413938332D3331353338454246344243312F636E782E786D6CD593CD6EC32010845F0571AD6CE3D48AD20813A9873E410FBD12D82434182C7EAAE6EDBB2424CD25871E7B41D6EC30B3FA84F9E67BB2E40B4234DE8DB46F1925E094D7C6ED479AD3AE5951B2113C
310
789FEE6C943839C1488B4C05DF079FE72A69D8C96C13AAD6B8631503449F83828872B949AC57D26200B826A308D316B4064D6E46FCDA41C05550DC9E483A00797BFD207EFB092A45DE9514C1BBD22178396BD39D891265658C238DEA00936C654E5E433CB65A26D9F6EDB5EBC14EBF49A45CB856E66048291F6939A9A81BB5
310
C8917738143CA680F4AA299D66A042CEB3354A2684DC9D8D178FE0D9B8B41CAAD720F880EE7EF93C0C18769E099ECC04D5A102C8049A8A05632F4DDF376CF1DE0F6BB65C2F8627B65A33C6BB62177CEBBDAD973006829F89F22E814B54F4BC2BE347F8AA8F681390B50FA73F804400B5F542E796F19FF974E7F78DB802FE05
310
E207504B0304140006080800CC70623B16AB87BA640500003C100000340000006662782F39464131463745442D413632322D343644302D413938332D3331353338454246344243312F6F626A656374732E786D6CAD575B6FA33818FD2B887DE6924B3BED8A326A92B68A663B534DD4D13E548A0C38942D60649B369D5FBFC7
310
600890A493BDE42160637FD7F31D7FF63E6FB3D478A55C242CBF3247B66B1A340F5994E4F19559CA8D75611A9F7D8F33263BCB4C232719BD32D5B4E97B316765A1A722BA21652A07B3B7B33F0D11D29C9A46981221AE4C113ED38CD8A4942CA2E2C58E882476BCD9DA23BB5ED8171B73523C0F841684D35CC252CCE79062D4
310
468DFA43D7747CCF51DF7D4FFDEB5593E3AB9CCA9FBEFE241792E4E19EB28198C968BAB8199F5D5A67D3E9C49A9E8F47D6EC76B6B0469F26EEFC7C3EBFBCBEB98462213924694B38DD98FE1D62C393D073EA4FADC5DAF04326852CCF6958F90F0F2B9BB5C48816348F90C7840A68EB78EDF68723159BCEE7891A6B95DDE9D3
310
BCEAEEE8086A6C6F9E5D4B59F0175C10A7A0820BAA5055C7473B5AE3CFDD452D602CD5DF12616444529E90D448938013FE6EFA58AA96F85E4F8C42275708571E98FE6827AF6B2B4AE3D7D83D64E5A64C53054DD3AF90BD06FEA9149565C94FCA0F6B834DC85599E4F2423B24DF0B6AFA979E534DFA9E7A4CC6FA631D486393
310
921829879BF5D781A373557BCB85E97FB90DB62B558F8795179C15944B051F40AB495CF35451D26A4727654E6D8033BD98EF82F21D91FF8AF2DD9982BCF1643BDD4EB516C9492E368C67C88DED563FC36D5EACF66DFF057C3658BDBFA69DF9578B3DA735B64F18C7F20770A9D45CFCF7FCF563D6456A277DBEF78A02637CA2
310
43B90A490AEAB94F72244481D24819A6C0E59B606BFA4B3025981DBB48EAB701D97BF19C577CC77F2D1B6C55A9EF3C732474C0B727303F625995056C3B02963D9EAC146BE78EC5FCEC7FA999EBC5EACBAAE41B12D27B4D2C0BBA49F244E2ECDC81B76B502F113D8F5EE8FB1BE3111CDD4FC2AA9B844CAB1288B68AB90A7CDC
310
1C166AB0D3DC5310625FCC14E779BFD0709F8890A629C9292B1B2DED31A4B0DA928CEE135085754027E3018A397D4D5427D15BD1330B677DC8934285AC3DF45A9EB68FF8F2B8FC0A509AFEECFD0FF2DE25CC6047F7214B195F07EFEB9A094D800F7BFAE8FED187B78EA8A3A400F115961BCAD1215E47C966530AF0EE8128FE
310
58CEBB996A8964FFA529A046635D9353B0336A8F700DDF46271A024E70B0B37C9DE01847591E54DED53D54202AB947E4076556AC49C6CA5C9E1226B7F1A7B1BE15DEED62C41B91E1B3E9AFAAA735036547343A925075041DF0A9979E893B391F8FCFA6967B3EFB644DCF6E5CEBFAE272625DCC6FAF3FB93793C5F90CE1EF57
310
407342756B10D1C489E8953CD1617E5CEECAD6F4EF8914CE5D5D504E5C3F1F9736DA62CFC11E00BCDDB8CC8A9466349744C1F75EBDA4DF09BA8A9E8C7A7E9991989E20E5DBDD6A6003664ED8F7A04A8DBE0DF6EAD9B9AA858342E47399053949D2C146EDB85DE4B176BB0965FBAC19BD19AA918E27FA50C1D22402E144464C
310
59462568E704B6E71915404CB72B8FF4EDE184DDAF753F284990D2C6926782963815403548A70C657FDEF80D2D9CEAA2AE4C1C76F60BFE74219A06527D6582DF6412526107381E55E353090704D085B52408D0933C4ED159D79BDA71BB4BC506F4831350EB6F979CD22D69BF7AC49B91A2C0A9DDA3D5CA36AD20FC478E37E6
310
1844E2352865EBCB6EA275A652E3836BE04EFB400BF1A2556F515F1FBB35B2AB35BD889C744FFA1004B5544B121E57F70215746DD2F5E2C1412B602CBF19455AC6C8E5E9922C4E01E65215385004546899059180EAFCF7A707CE7017CD8CDB0410789AB32C63B91E5CEBBBACB17AC6CD347A022D5075FD106377347AAABA7E
310
7D11590744509B44E205134DC1290F06580320F78E537D3D73540E06CB970B431F185308AD40BBD794D6D77003C5A36E8EAA54BA64597CD8F83BD552A080A365F7FF06504B0304140006080000CC70623B000000000000000000000000350000006662782F39464131463745442D413632322D343644302D413938332D3331
310
353338454246344243312F76657274696365732E62696E504B0304140006080800CC70623BF270F1330600000004000000360000006662782F39464131463745442D413632322D343644302D413938332D3331353338454246344243312F747269616E676C65732E62696E636660600000504B0304140006080000CC70623B
310
000000000000000000000000370000006662782F39464131463745442D413632322D343644302D413938332D3331353338454246344243312F617474726962757465732E62696E504B0304140006080800CC70623B08DA0BD19000000041010000360000006662782F39464131463745442D413632322D343644302D413938
310
332D3331353338454246344243312F6469726563746F72792E786D6C858F410AC3201045AF22B36F53E9A60B35CBEEBAE80D244E44489C6234F4F835464A48035D0DF398FF9F8AF63D0E6CC63039F212F8F9020C7D47C6792B21C5FE7403D62A1188E2E60C98D7234A5830286103A55745067B9D86B8A3CF9C7F90C11DE607
310
FB144396D7B6A82D282E9A152AD114D5EF2CB866EEE831B8EEA07A7BB5A8D7D61A2BAAEB7FD5F70921FF497D00504B0304140006080800CC70623B0D6EF93BFE000000A00100003B0000006662782F39464131463745442D413632322D343644302D413938332D3331353338454246344243312F7265736F75726365732F63
310
6F72652E786D6C8D50596E833010BD0A9ADFCA60B334011947A8694ED00B586642AC041B79A97AFC9A40A5F6AF3F33A3B7689E1E3F7DCD8FEC139DD7D6F4C0720A191A65476DA61E62B892236427C19DB5E1970C322367EC618541F0C9D9B8EC90B226A009093576C41D94DE63804C3DD2D18357379C652E63480A7FCF17A9
310
EE72C29CE5894E3AC17D702940B63D59270887DE46A7D0F36263058F518FBB468FE9A7BE6A7420864373B8D4873369AA8691FA421B3294352543C5CAF65C0F6FEF43CB8BD52C78D0F34F46E550061C419494B6843142CB0F5677F4B52BEB177AEC28E5C52AFF638ACBF84F53D42654E51E77B379102C05791282176B5F693D
310
CB4C7BED567C03504B010214000A0000080000CC70623B3DEE336E79000000790000001B00000000000000000000000000000000006175746F6465736B2D64657369676E2D7061636B6167652E786D6C504B01021400140006080800CC70623BD486FD9CA0000000F40000001300000000000000000000000000B20000005B
310
436F6E74656E745F54797065735D2E786D6C504B01021400140006080800CC70623B1EC5D7A3EB0000007C010000080000000000000000000000000083010000636F72652E786D6C504B01021400140006080800CC70623B55019EA25F0000007C000000070000000000000000000000000094020000636E782E786D6C504B
310
01021400140006080800CC70623B8C9102E971010000D40300000C00000000000000000000000000180300006662782F636F72652E786D6C504B01021400140006080800CC70623BFFEA85907E0000009D0000000B00000000000000000000000000B30400006662782F636E782E786D6C504B01021400140006080800CC70
310
623B4FEEA4082C0100001202000031000000000000000000000000005A0500006662782F39464131463745442D413632322D343644302D413938332D3331353338454246344243312F636F72652E786D6C504B01021400140006080800CC70623BAD7543B64E010000330300003000000000000000000000000000D5060000
310
6662782F39464131463745442D413632322D343644302D413938332D3331353338454246344243312F636E782E786D6C504B01021400140006080800CC70623B16AB87BA640500003C1000003400000000000000000000000000710800006662782F39464131463745442D413632322D343644302D413938332D3331353338
310
454246344243312F6F626A656374732E786D6C504B01021400140006080000CC70623B0000000000000000000000003500000000000000000000000000270E00006662782F39464131463745442D413632322D343644302D413938332D3331353338454246344243312F76657274696365732E62696E504B01021400140006
310
080800CC70623BF270F133060000000400000036000000000000000000000000007A0E00006662782F39464131463745442D413632322D343644302D413938332D3331353338454246344243312F747269616E676C65732E62696E504B01021400140006080000CC70623B0000000000000000000000003700000000000000
310
000000000000D40E00006662782F39464131463745442D413632322D343644302D413938332D3331353338454246344243312F617474726962757465732E62696E504B01021400140006080800CC70623B08DA0BD190000000410100003600000000000000000000000000290F00006662782F39464131463745442D413632
310
322D343644302D413938332D3331353338454246344243312F6469726563746F72792E786D6C504B01021400140006080800CC70623B0D6EF93BFE000000A00100003B000000000000000000000000000D1000006662782F39464131463745442D413632322D343644302D413938332D3331353338454246344243312F7265
310
736F75726365732F636F72652E786D6C504B0506000000000E000E0080040000641100000000
  0
XRECORD
  5
2141
102
{ACAD_REACTORS
330
173
102
}
330
173
100
AcDbXrecord
280
     1
102
MATERIAL
148
0.0
149
0.0
149
0.0
 93
        0
 94
       63
282
     0
 72
     1
 77
     1
171
     1
175
     1
179
     1
273
     0
  0
XRECORD
  5
175
102
{ACAD_REACTORS
330
173
102
}
330
173
100
AcDbXrecord
280
     1
270
     1
271
     1
  0
XRECORD
  5
174
102
{ACAD_REACTORS
330
173
102
}
330
173
100
AcDbXrecord
280
     1
270
     1
271
     1
  0
XRECORD
  5
1FB
102
{ACAD_REACTORS
330
173
102
}
330
173
100
AcDbXrecord
280
     1
 70
     0
 90
1673772943
  1
ECE7A1D2-D628-4531-984C-D00F80459256
310
504B03040A0000080000CC70623B3DEE336E79000000790000001B0000006175746F6465736B2D64657369676E2D7061636B6167652E786D6C3C3F786D6C2076657273696F6E3D22312E302220656E636F64696E673D227574662D3822203F3E3C666F726D6174733E3C666F726D61743E687474703A2F2F736368656D612E
310
6175746F6465736B2E636F6D2F64657369676E2D7061636B6167652F323030393C2F666F726D61743E3C2F666F726D6174733E504B0304140006080800CC70623BD486FD9CA0000000F4000000130000005B436F6E74656E745F54797065735D2E786D6C7D8EC10E82300C865F65E91D8A1E8C310C0EEA1BF002731658846E
310
D98AC1B77784ABF1D8FE5FBFBF75BBCE937A534CCEB38643598122B6FEE978D0B0485F9C41B54DDD7D022595594E1A469170414C76A4D9A4D207E29CF43ECE46F218070CC6BECC4078ACAA135ACF422C856C0E68EA1BF5669944DDD7BCDE7B1F8E415D77AECB980613C2E4AC91FC167A2B244592486606FC29C8FD7F045B9A
310
EF7053A7E60B504B0304140006080800CC70623BD9DDAED0EC0000007C01000008000000636F72652E786D6C8D90416EC3201045AF82665B61836D9CD8C2444DD39CA01740405C94182C03558F5F9C3852BBEB6A467FFE9B197D7EF89E6EE8CB2CC17A37002D0820E394D7D68D03A478C17B4007C117EFE32F1B20272733C0
310
2A83E0E3E2D3BC49CABB685CCCAAF3DA6CA20CC14440EA969B0182FA34932C648AD911AEC52CD5558EA6A0CF2EC329598D1E47ACCEFBECC59A050463A7EA5833865FEBDD0E37353BE3EE8DBDE3F6786A48D375FBF6CC78B9C282473B3DEFABC5C86834888A900E538A49F5419B9EB47DD5BC907D4F082F57FB1F28CDFA9F50
310
B22ED6D5F6EE030B20687EE43E10BC5CB3C8E51E54AE6B6EE207504B0304140006080800CC70623B55019EA25F0000007C00000007000000636E782E786D6C4DCB3B0E80201045D1AD90E915ED2CF8AC45050C11660C8261F98AB1B07AC9C97D42D718D865D3E909258CFD00CCE24AC6E326A164D74DC0B4128928FF326038
310
472BA13128B1252AC747C6BAB984FC68F0B87FE8960A5C09FE86CFB69FBA01504B0304140006080800CC70623BA24EB22D72010000D40300000C0000006662782F636F72652E786D6CC5535B6E833010BC8AE5DF0A6C5E49888CA3A6694ED00B38E05014B091B1518EDFE511A5A9D228FD2A1F60CDEC7A67C6986DCE4D8D7A
310
69BA4AAB0C073EC548AA5C17952A33ECECD15B61B4E1CC686DBF9561A44423333CC098B3D268D7CE50AE9595CA02AA74216750749DB418E5352C32DCE59FB211BE70162ABA93DF8AFC244AE9073ED050C759670D0840D390E18DF9F1706664C23973AE2A66B62A605A75ACA4C13C4976E1364A12EF355A2EBD384AF65EFA96
310
BC7B8BED2EA6719AAE16FB8491A199335B351775B991C2CA02F390D2D40B028F861F41BCA68B7518BFD0D59A524686F29B26D7164F36B94AD9289CE54E6D1DE6010819891F6E21228B3AD1831EC219194284CF98F06DD01008846CC5A1BEF83801D4CBDC6A1303536877A57A513B0953A94FC707FDBE6064EA84A9E3E6E0FA
310
EE8CF0E9198F7784A316AA0413C2C2F2E0ECA0934D1AE6D05A69BCDE9E91D2A611F573361E38FC1375157F5752AE6B6DFE4B11990F88CCBF0719EE23FF02504B0304140006080800CC70623B408A7D3B7C0000009D0000000B0000006662782F636E782E786D6C4DCCD10A83201886E15B91FFDC552A92A0064DBC8F581632
310
D3703A76F9ABD1C18E3E78F878E5F0D9027ABBFCF2292AE86E2D20171F69F6715550CB827B40839639A5F2770314A7CD293819B45C73AAFB45B35BA61ACAA1C1C7E7855C58C15BC331339661262CC762340413D68D77DA5B42298546CBE6573AF60CEB2F504B0304140006080800CC70623B449FB9BD290100001202000031
310
0000006662782F36394639363044362D344446342D343946362D394244322D3234314243333846323333332F636F72652E786D6C8D515B6EC32010BC0AE22B55850D98B871848994463E412FE002495162B07854397EA176A4F62F3F2C9A9D991D587EB84F37F0AD7D30CEF6905418026DA553C65E7A98E219ED203808EE9D
310
8B7F6810D871D23D2C3014FCE25D9A57483A1BB58D19B54EE9151C43D0110279CB971E06F9A5A7B11A53CC8C70ADE6515EC78BAE4895DB992778883E0700CB907242D17643D7E2538BD869608875438BBAE38922CAC8F1BDD90DB4691A5E2F42C153326A951B95E398B3D1FE599322163C9AE9115F7A3D46ADA0A018778810
310
84E907617BDCEE297BC5BB3DC6BC2EF47FA234AB2745C9D8D8D035EE220B50105E2F0DC1954B9FB747187D9F9D8FA0CCDB042D5FA0C015C65B42DF78BD10F3F3B363CB56C7109DCFDFBBB97E662ED92EB62D13BC2E1BCAE5777DB9966D8A1F504B0304140006080800CC70623BAD7543B64E01000033030000300000006662
310
782F36394639363044362D344446342D343946362D394244322D3234314243333846323333332F636E782E786D6CD593CD6EC32010845F0571AD6CE3D48AD20813A9873E410FBD12D82434182C7EAAE6EDBB2424CD25871E7B41D6EC30B3FA84F9E67BB2E40B4234DE8DB46F1925E094D7C6ED479AD3AE5951B2113C789FEE
310
6C943839C1488B4C05DF079FE72A69D8C96C13AAD6B8631503449F83828872B949AC57D26200B826A308D316B4064D6E46FCDA41C05550DC9E483A00797BFD207EFB092A45DE9514C1BBD22178396BD39D891265658C238DEA00936C654E5E433CB65A26D9F6EDB5EBC14EBF49A45CB856E66048291F6939A9A81BB5C89177
310
38143CA680F4AA299D66A042CEB3354A2684DC9D8D178FE0D9B8B41CAAD720F880EE7EF93C0C18769E099ECC04D5A102C8049A8A05632F4DDF376CF1DE0F6BB65C2F8627B65A33C6BB62177CEBBDAD973006829F89F22E814B54F4BC2BE347F8AA8F681390B50FA73F804400B5F542E796F19FF974E7F78DB802FE05E20750
310
4B0304140006080800CC70623B8D05915C650500003B100000340000006662782F36394639363044362D344446342D343946362D394244322D3234314243333846323333332F6F626A656374732E786D6CAD575B6FA33814FE2B887D06429276DA1565D4266D158D3A339A6846FB502932E050B66023DB74D2FDF5FB190C01
310
9276B2973C046C8ECFF53B17071F77456EBD502133CEAE6CDF9DD81665314F32965ED995DA3A17B6F5310C04E7AA47665B8C14F4CAD6DB7618A48257A5D94AE89654B91AEDDEDDFC61C998326A5B714EA4BCB265FC440BE2924AF184CA6737218AB8E976E7FA6E4338649B0A523E8D98964450A6A029F619B8588D52FE7039
310
B1BD30F0F4F730D0FF866AF6369557DB33949F31A9088B0F848DD8CCFCF9F2767A76E99CCDE733677E3EF59D9BBB9BA5E37F984D16E78BC5E5F5ED25044B25C0C96822E8D60EEFE11B91C581D77CEA34368A1F5329E68CD1B8B61F16D63A1B8E092D294B10C78C4A48EB593D192E7DED9BDEE7995E1B91FDEDD3ACEA9FE831
310
6A756F9F7D4D79F4274C90A7A04248AA51D5F8C718DAE06FB2F75AC4796EBE65D22A88A22223B995679120E2D50E41AA49C260C046A35368846B0BECD0DFF3EBEB8AD4F835768F69B9ADF25C43D30E6B646F807FAA64AD59F61715C7A54127C4AACA98BA3006A9D792DAE165E0D59B61A01FB3A9F9D838D2DAE62445C86166
310
F37564E842E7DE6A69879FEEA2DD5AE7E371E1A5E025154AC307D06A03D73EB5978C58FFA4C8E9033066E0F3BD53BEC1F39F91BE7B55103791EDE6BBB991A2046172CB4581D8B893FA674DDA17A77B3B7C413D1B511FD2743BFF8A38F03A658705E3ADF8015C3A3417FF3D7E439FF591DA0B5F18BC20C1B8981957AE6392A3
310
F43C640C01D1A0B4728E2DD4F26DB4B3C3152A252A3B4E913CEC1C72F012782FF88EFF8637AA552DBEF76408E8A8DE9E50F9E1CB3A2DA0DB1B6039A893B56063DC5B3E3FFB5F72E67AB9FEB4AEC496C4F4C1149625DD662C53E89D7BF0F6151A046260D1337DFDC94502430F83B0EE07A130A224BCAD7DAE1D9FB6CD422FF6
310
920702629C4BB9AE79C12F243C6432A6794E18E5552BA56B431AAB5D91317302B2B071E86C3A42B1A02F999E24061403B5D0EB639195DA655DD3EBEAB4FB862DDF579F014AD0E73C22F99E28DA57FB98E75C6CA2D74D53086D600F4786E0FE3144B771A8A7B900F03594DB8A633CBC49B2EDB69228BB479CF863B5E807AAAB
310
23872F6DFEB4129B949CA33823F58830E86D65621E10047D9DB34D862E8EAC3C2ABC2F7B2C40D67CDFE01F5545B92105AF983AC54D93D69E56FB8E797F88913F898A9FEC705D3F9D1B54EC8426FB500D40A03BD0119B06E1B95DDC7EB8F6975367793EBD70E66733DFB9BC982F9CE564727731999F5D4ECFCE3B8D6A4DC2A0
310
6D50FD148437D110834A64C6CDDF57FBACB5C307A2A477DFE4939736CFEF2B175371E0E10CF0DD1D5C15654E0BCA14D1E87DD02FF93782A162C0A3D95F1524A52770F972BF1EE9809D13CE7DD599467F8ECE9ADD85CE85A34CD45355448C64F9E8A031DC2D596ACC6E5DD93D9B82DE2EF5CAF81363A8E47996A0DE24564A79
310
4115AACE09C55E14540231FDA13C319787134EBF34E3A022514E5B4D9E0826E25C02D5805B15ABE1BEF51B26383D445DD9E875EE33FE4C22DA16427D65A3BCA92CA6D28DD01DF5DC53330704308475351050232CCD31583787BA75774AFB06E5070DD0C8EF484E19968C5D83BA5B90B244D31E54D55A372320FE4786B7EA58
310
44E135AA5467CB7EA333A61683CC6A8C3257034C10CF46F40EF9F5BE59BE5BD30C3C72D235E95D10345C1D45445A5F0BB47E46A5EBE5570F9380B5FA629579952296A773720405982B9DE04011506178964401AA8BDF1FBF0A8EAB6861DD6580C0E38217056766716DAEB2D6FA0917D3E4116581EADB879C4E7CFFB11EFACD
310
3D641311495D92C8676CB409A72D18610D803CE8A626049E8EC1887CB5B44CC39883690DDA8399B4B9855B481E7D71D4A9D22F96E5BB73BF5793020C02137BF837504B0304140006080000CC70623B000000000000000000000000350000006662782F36394639363044362D344446342D343946362D394244322D32343142
310
43333846323333332F76657274696365732E62696E504B0304140006080800CC70623BF270F1330600000004000000360000006662782F36394639363044362D344446342D343946362D394244322D3234314243333846323333332F747269616E676C65732E62696E636660600000504B0304140006080000CC70623B0000
310
00000000000000000000370000006662782F36394639363044362D344446342D343946362D394244322D3234314243333846323333332F617474726962757465732E62696E504B0304140006080800CC70623B08DA0BD19000000041010000360000006662782F36394639363044362D344446342D343946362D394244322D
310
3234314243333846323333332F6469726563746F72792E786D6C858F410AC3201045AF22B36F53E9A60B35CBEEBAE80D244E44489C6234F4F835464A48035D0DF398FF9F8AF63D0E6CC63039F212F8F9020C7D47C6792B21C5FE7403D62A1188E2E60C98D7234A5830286103A55745067B9D86B8A3CF9C7F90C11DE607FB14
310
4396D7B6A82D282E9A152AD114D5EF2CB866EEE831B8EEA07A7BB5A8D7D61A2BAAEB7FD5F70921FF497D00504B0304140006080800CC70623BCA768048FE000000A00100003B0000006662782F36394639363044362D344446342D343946362D394244322D3234314243333846323333332F7265736F75726365732F636F72
310
652E786D6C8D50596E833010BD0A9ADFCA60D600328E9AA639412F609909B1126CE4A5EAF16B0295DABFFECC8CDEA2797AECF8353F924FB44E193D409E5248504B332A3D0D10FC95B4901C39B3C6F85F3248B49871801506CE266BC2B243D2688FDA47549B11775038871E12F988C7004EDE7016A9083E2ADC3D5D84BC8B09
310
D33C8D74D471E6BC8D0192EDC93A815B742658898E651BCB59086ADC356A8C3FD555A1055ED7E7E254D615792D0F075295F585746FF53B694EE78A565DD736979A65AB9933AFE69F8CD2A2F038022F28ED489E135A7CE4554F9BBEA85E68DB53CAB255FEC71496F19FA6A0B42F8B3DEE6673C0F318E4497096AD7DC5F52C33
310
EEB55BFE0D504B010214000A0000080000CC70623B3DEE336E79000000790000001B00000000000000000000000000000000006175746F6465736B2D64657369676E2D7061636B6167652E786D6C504B01021400140006080800CC70623BD486FD9CA0000000F40000001300000000000000000000000000B20000005B436F
310
6E74656E745F54797065735D2E786D6C504B01021400140006080800CC70623BD9DDAED0EC0000007C010000080000000000000000000000000083010000636F72652E786D6C504B01021400140006080800CC70623B55019EA25F0000007C000000070000000000000000000000000095020000636E782E786D6C504B0102
310
1400140006080800CC70623BA24EB22D72010000D40300000C00000000000000000000000000190300006662782F636F72652E786D6C504B01021400140006080800CC70623B408A7D3B7C0000009D0000000B00000000000000000000000000B50400006662782F636E782E786D6C504B01021400140006080800CC70623B
310
449FB9BD290100001202000031000000000000000000000000005A0500006662782F36394639363044362D344446342D343946362D394244322D3234314243333846323333332F636F72652E786D6C504B01021400140006080800CC70623BAD7543B64E010000330300003000000000000000000000000000D20600006662
310
782F36394639363044362D344446342D343946362D394244322D3234314243333846323333332F636E782E786D6C504B01021400140006080800CC70623B8D05915C650500003B10000034000000000000000000000000006E0800006662782F36394639363044362D344446342D343946362D394244322D32343142433338
310
46323333332F6F626A656374732E786D6C504B01021400140006080000CC70623B0000000000000000000000003500000000000000000000000000250E00006662782F36394639363044362D344446342D343946362D394244322D3234314243333846323333332F76657274696365732E62696E504B010214001400060808
310
00CC70623BF270F13306000000040000003600000000000000000000000000780E00006662782F36394639363044362D344446342D343946362D394244322D3234314243333846323333332F747269616E676C65732E62696E504B01021400140006080000CC70623B00000000000000000000000037000000000000000000
310
00000000D20E00006662782F36394639363044362D344446342D343946362D394244322D3234314243333846323333332F617474726962757465732E62696E504B01021400140006080800CC70623B08DA0BD190000000410100003600000000000000000000000000270F00006662782F36394639363044362D344446342D
310
343946362D394244322D3234314243333846323333332F6469726563746F72792E786D6C504B01021400140006080800CC70623BCA768048FE000000A00100003B000000000000000000000000000B1000006662782F36394639363044362D344446342D343946362D394244322D3234314243333846323333332F7265736F
310
75726365732F636F72652E786D6C504B0506000000000E000E0080040000621100000000
  0
XRECORD
  5
176
102
{ACAD_REACTORS
330
173
102
}
330
173
100
AcDbXrecord
280
     1
270
     1
271
     1
  0
XRECORD
  5
177
102
{ACAD_REACTORS
330
173
102
}
330
173
100
AcDbXrecord
280
     1
270
     1
271
     1
  0
XRECORD
  5
2163
102
{ACAD_REACTORS
330
2162
102
}
330
2162
100
AcDbXrecord
280
     1
102
ACAD_ROUNDTRIP_2012_MLEADER_STYLE
298
     1
  0
XRECORD
  5
2175
102
{ACAD_REACTORS
330
2174
102
}
330
2174
100
AcDbXrecord
280
     1
102
DISPLAYNAME
  1
Metric50
102
FLAGS
 90
        0
  0
CELLSTYLEMAP
  5
2135
102
{ACAD_REACTORS
330
162
102
}
330
162
100
AcDbCellStyleMap
 90
        3
300
CELLSTYLE
  1
TABLEFORMAT_BEGIN
 90
        5
170
     1
 91
        0
 92
    32768
 62
   257
 93
        1
300
CONTENTFORMAT
  1
CONTENTFORMAT_BEGIN
 90
        0
 91
        0
 92
      512
 93
        0
300

 40
0.0
140
1.0
 94
        5
 62
     0
340
11
144
6.0
309
CONTENTFORMAT_END
171
     1
301
MARGIN
  1
CELLMARGIN_BEGIN
 40
1.5
 40
1.5
 40
1.5
 40
1.5
 40
4.5
 40
4.5
309
CELLMARGIN_END
 94
        6
 95
        1
302
GRIDFORMAT
  1
GRIDFORMAT_BEGIN
 90
        0
 91
        1
 62
     0
 92
       -2
340
14
 93
        0
 40
1.125
309
GRIDFORMAT_END
 95
        2
302
GRIDFORMAT
  1
GRIDFORMAT_BEGIN
 90
        0
 91
        1
 62
     0
 92
       -2
340
14
 93
        0
 40
1.125
309
GRIDFORMAT_END
 95
        4
302
GRIDFORMAT
  1
GRIDFORMAT_BEGIN
 90
        0
 91
        1
 62
     0
 92
       -2
340
14
 93
        0
 40
1.125
309
GRIDFORMAT_END
 95
        8
302
GRIDFORMAT
  1
GRIDFORMAT_BEGIN
 90
        0
 91
        1
 62
     0
 92
       -2
340
14
 93
        0
 40
1.125
309
GRIDFORMAT_END
 95
       16
302
GRIDFORMAT
  1
GRIDFORMAT_BEGIN
 90
        0
 91
        1
 62
     0
 92
       -2
340
14
 93
        0
 40
1.125
309
GRIDFORMAT_END
 95
       32
302
GRIDFORMAT
  1
GRIDFORMAT_BEGIN
 90
        0
 91
        1
 62
     0
 92
       -2
340
14
 93
        0
 40
1.125
309
GRIDFORMAT_END
309
TABLEFORMAT_END
  1
CELLSTYLE_BEGIN
 90
        1
 91
        1
300
_TITLE
309
CELLSTYLE_END
300
CELLSTYLE
  1
TABLEFORMAT_BEGIN
 90
        5
170
     1
 91
        0
 92
        0
 62
   257
 93
        1
300
CONTENTFORMAT
  1
CONTENTFORMAT_BEGIN
 90
        0
 91
        0
 92
      512
 93
        0
300

 40
0.0
140
1.0
 94
        5
 62
     0
340
11
144
4.5
309
CONTENTFORMAT_END
171
     1
301
MARGIN
  1
CELLMARGIN_BEGIN
 40
1.5
 40
1.5
 40
1.5
 40
1.5
 40
4.5
 40
4.5
309
CELLMARGIN_END
 94
        6
 95
        1
302
GRIDFORMAT
  1
GRIDFORMAT_BEGIN
 90
        0
 91
        1
 62
     0
 92
       -2
340
14
 93
        0
 40
1.125
309
GRIDFORMAT_END
 95
        2
302
GRIDFORMAT
  1
GRIDFORMAT_BEGIN
 90
        0
 91
        1
 62
     0
 92
       -2
340
14
 93
        0
 40
1.125
309
GRIDFORMAT_END
 95
        4
302
GRIDFORMAT
  1
GRIDFORMAT_BEGIN
 90
        0
 91
        1
 62
     0
 92
       -2
340
14
 93
        0
 40
1.125
309
GRIDFORMAT_END
 95
        8
302
GRIDFORMAT
  1
GRIDFORMAT_BEGIN
 90
        0
 91
        1
 62
     0
 92
       -2
340
14
 93
        0
 40
1.125
309
GRIDFORMAT_END
 95
       16
302
GRIDFORMAT
  1
GRIDFORMAT_BEGIN
 90
        0
 91
        1
 62
     0
 92
       -2
340
14
 93
        0
 40
1.125
309
GRIDFORMAT_END
 95
       32
302
GRIDFORMAT
  1
GRIDFORMAT_BEGIN
 90
        0
 91
        1
 62
     0
 92
       -2
340
14
 93
        0
 40
1.125
309
GRIDFORMAT_END
309
TABLEFORMAT_END
  1
CELLSTYLE_BEGIN
 90
        2
 91
        1
300
_HEADER
309
CELLSTYLE_END
300
CELLSTYLE
  1
TABLEFORMAT_BEGIN
 90
        5
170
     1
 91
        0
 92
        0
 62
   257
 93
        1
300
CONTENTFORMAT
  1
CONTENTFORMAT_BEGIN
 90
        0
 91
        0
 92
      512
 93
        0
300

 40
0.0
140
1.0
 94
        2
 62
     0
340
11
144
4.5
309
CONTENTFORMAT_END
171
     1
301
MARGIN
  1
CELLMARGIN_BEGIN
 40
1.5
 40
1.5
 40
1.5
 40
1.5
 40
4.5
 40
4.5
309
CELLMARGIN_END
 94
        6
 95
        1
302
GRIDFORMAT
  1
GRIDFORMAT_BEGIN
 90
        0
 91
        1
 62
     0
 92
       -2
340
14
 93
        0
 40
1.125
309
GRIDFORMAT_END
 95
        2
302
GRIDFORMAT
  1
GRIDFORMAT_BEGIN
 90
        0
 91
        1
 62
     0
 92
       -2
340
14
 93
        0
 40
1.125
309
GRIDFORMAT_END
 95
        4
302
GRIDFORMAT
  1
GRIDFORMAT_BEGIN
 90
        0
 91
        1
 62
     0
 92
       -2
340
14
 93
        0
 40
1.125
309
GRIDFORMAT_END
 95
        8
302
GRIDFORMAT
  1
GRIDFORMAT_BEGIN
 90
        0
 91
        1
 62
     0
 92
       -2
340
14
 93
        0
 40
1.125
309
GRIDFORMAT_END
 95
       16
302
GRIDFORMAT
  1
GRIDFORMAT_BEGIN
 90
        0
 91
        1
 62
     0
 92
       -2
340
14
 93
        0
 40
1.125
309
GRIDFORMAT_END
 95
       32
302
GRIDFORMAT
  1
GRIDFORMAT_BEGIN
 90
        0
 91
        1
 62
     0
 92
       -2
340
14
 93
        0
 40
1.125
309
GRIDFORMAT_END
309
TABLEFORMAT_END
  1
CELLSTYLE_BEGIN
 90
        3
 91
        2
300
_DATA
309
CELLSTYLE_END
  0
XRECORD
  5
213A
102
{ACAD_REACTORS
330
162
102
}
330
162
100
AcDbXrecord
280
     1
102
ACAD_ROUNDTRIP_PRE2007_TABLESTYLE
 90
      512
 91
        0
  1

 92
      512
 93
        0
  2

 94
      512
 95
        0
  3

  0
XRECORD
  5
214D
102
{ACAD_REACTORS
330
214C
102
}
330
214C
100
AcDbXrecord
280
     1
102
RTVSPost2010Prop28
280
     1
102
RTVSPost2010PropOp28
 70
     1
102
RTVSPost2010Prop29
280
     1
102
RTVSPost2010PropOp29
 70
     1
102
RTVSPost2010Prop30
280
     0
102
RTVSPost2010PropOp30
 70
     1
102
RTVSPost2010Prop31
280
     0
102
RTVSPost2010PropOp31
 70
     1
102
RTVSPost2010Prop32
280
     0
102
RTVSPost2010PropOp32
 70
     1
102
RTVSPost2010Prop33
280
     0
102
RTVSPost2010PropOp33
 70
     1
102
RTVSPost2010Prop34
280
     0
102
RTVSPost2010PropOp34
 70
     1
102
RTVSPost2010Prop35
280
     0
102
RTVSPost2010PropOp35
 70
     1
102
RTVSPost2010Prop36
280
     0
102
RTVSPost2010PropOp36
 70
     1
102
RTVSPost2010Prop37
 90
       50
102
RTVSPost2010PropOp37
 70
     1
102
RTVSPost2010Prop38
140
0.0
102
RTVSPost2010PropOp38
 70
     1
102
RTVSPost2010Prop39
140
1.0
102
RTVSPost2010PropOp39
 70
     1
102
RTVSPost2010Prop40
 90
        0
102
RTVSPost2010PropOp40
 70
     1
102
RTVSPost2010Prop41ColorIndex
 90
       18
102
RTVSPost2010Prop41ColorRGB
 90
        0
102
RTVSPost2010PropOp41
 70
     1
102
RTVSPost2010Prop42
 90
       50
102
RTVSPost2010PropOp42
 70
     1
102
RTVSPost2010Prop43
 90
        3
102
RTVSPost2010PropOp43
 70
     1
102
RTVSPost2010Prop44ColorIndex
 90
        5
102
RTVSPost2010Prop44ColorRGB
 90
      255
102
RTVSPost2010PropOp44
 70
     1
102
RTVSPost2010Prop45
280
     0
102
RTVSPost2010PropOp45
 70
     1
102
RTVSPost2010Prop46
 90
       50
102
RTVSPost2010PropOp46
 70
     1
102
RTVSPost2010Prop47
 90
       50
102
RTVSPost2010PropOp47
 70
     1
102
RTVSPost2010Prop48
 90
       50
102
RTVSPost2010PropOp48
 70
     1
102
RTVSPost2010Prop49
280
     0
102
RTVSPost2010PropOp49
 70
     1
102
RTVSPost2010Prop50
 90
       50
102
RTVSPost2010PropOp50
 70
     1
102
RTVSPost2010Prop51ColorIndex
 90
      256
102
RTVSPost2010Prop51ColorRGB
 90
-16777216
102
RTVSPost2010PropOp51
 70
     0
102
RTVSPost2010Prop52
140
1.0
102
RTVSPost2010PropOp52
 70
     0
102
RTVSPost2010Prop53
 90
        2
102
RTVSPost2010PropOp53
 70
     1
102
RTVSPost2010Prop54
  1
strokes_ogs.tif
102
RTVSPost2010PropOp54
 70
     1
102
RTVSPost2010Prop55
280
     0
102
RTVSPost2010PropOp55
 70
     1
102
RTVSPost2010Prop56
140
1.0
102
RTVSPost2010PropOp56
 70
     1
102
RTVSPost2010Prop57
140
1.0
102
RTVSPost2010PropOp57
 70
     1
102
RTVSPropertyOp0
 70
     1
102
RTVSPropertyOp1
 70
     1
102
RTVSPropertyOp2
 70
     1
102
RTVSPropertyOp3
 70
     1
102
RTVSPropertyOp4
 70
     1
102
RTVSPropertyOp5
 70
     1
102
RTVSPropertyOp6
 70
     1
102
RTVSPropertyOp7
 70
     1
102
RTVSPropertyOp8
 70
     1
102
RTVSPropertyOp9
 70
     1
102
RTVSPropertyOp10
 70
     1
102
RTVSPropertyOp11
 70
     1
102
RTVSPropertyOp12
 70
     1
102
RTVSPropertyOp13
 70
     1
102
RTVSPropertyOp14
 70
     1
102
RTVSPropertyOp15
 70
     1
102
RTVSPropertyOp16
 70
     1
102
RTVSPropertyOp17
 70
     1
102
RTVSPropertyOp18
 70
     1
102
RTVSPropertyOp19
 70
     1
102
RTVSPropertyOp20
 70
     1
102
RTVSPropertyOp21
 70
     1
102
RTVSPropertyOp22
 70
     1
102
RTVSPropertyOp23
 70
     1
102
RTVSPropertyOp24
 70
     1
102
RTVSPropertyOp25
 70
     1
102
RTVSPropertyOp26
 70
     1
102
RTVSPropertyOp27
 70
     1
102
RTVSPropertyOp28
 70
     1
102
RTVSPropertyOp29
 70
     1
102
RTVSPropertyOp30
 70
     1
102
RTVSPropertyOp31
 70
     1
102
RTVSPropertyOp32
 70
     1
102
RTVSPropertyOp33
 70
     1
102
RTVSPropertyOp34
 70
     1
102
RTVSPropertyOp35
 70
     1
102
RTVSPropertyOp36
 70
     1
102
RTVSPropertyOp37
 70
     1
102
RTVSPropertyOp38
 70
     1
102
RTVSPropertyOp39
 70
     1
102
RTVSPropertyOp40
 70
     1
102
RTVSPropertyOp41
 70
     1
102
RTVSPropertyOp42
 70
     1
102
RTVSPropertyOp43
 70
     1
102
RTVSPropertyOp44
 70
     1
102
RTVSPropertyOp45
 70
     1
102
RTVSPropertyOp46
 70
     1
102
RTVSPropertyOp47
 70
     1
102
RTVSPropertyOp48
 70
     1
102
RTVSPropertyOp49
 70
     1
102
RTVSPropertyOp50
 70
     1
102
RTVSPropertyOp51
 70
     0
102
RTVSPropertyOp52
 70
     0
102
RTVSPropertyOp53
 70
     1
102
RTVSPropertyOp54
 70
     1
102
RTVSPropertyOp55
 70
     1
102
RTVSPropertyOp56
 70
     1
102
RTVSPropertyOp57
 70
     1
102
RTVSPropertyOp58
 70
     1
102
RTVSPropertyOp59
 70
     1
102
RTVSPropertyOp60
 70
     1
102
RTVSPropertyOp61
 70
     1
102
RTVSPropertyOp62
 70
     1
  0
XRECORD
  5
214B
102
{ACAD_REACTORS
330
214A
102
}
330
214A
100
AcDbXrecord
280
     1
102
RTVSPost2010Prop28
280
     0
102
RTVSPost2010PropOp28
 70
     1
102
RTVSPost2010Prop29
280
     1
102
RTVSPost2010PropOp29
 70
     1
102
RTVSPost2010Prop30
280
     1
102
RTVSPost2010PropOp30
 70
     1
102
RTVSPost2010Prop31
280
     0
102
RTVSPost2010PropOp31
 70
     1
102
RTVSPost2010Prop32
280
     0
102
RTVSPost2010PropOp32
 70
     1
102
RTVSPost2010Prop33
280
     0
102
RTVSPost2010PropOp33
 70
     1
102
RTVSPost2010Prop34
280
     0
102
RTVSPost2010PropOp34
 70
     1
102
RTVSPost2010Prop35
280
     0
102
RTVSPost2010PropOp35
 70
     1
102
RTVSPost2010Prop36
280
     0
102
RTVSPost2010PropOp36
 70
     1
102
RTVSPost2010Prop37
 90
       50
102
RTVSPost2010PropOp37
 70
     1
102
RTVSPost2010Prop38
140
0.0
102
RTVSPost2010PropOp38
 70
     1
102
RTVSPost2010Prop39
140
1.0
102
RTVSPost2010PropOp39
 70
     1
102
RTVSPost2010Prop40
 90
        0
102
RTVSPost2010PropOp40
 70
     1
102
RTVSPost2010Prop41ColorIndex
 90
       18
102
RTVSPost2010Prop41ColorRGB
 90
        0
102
RTVSPost2010PropOp41
 70
     1
102
RTVSPost2010Prop42
 90
       50
102
RTVSPost2010PropOp42
 70
     1
102
RTVSPost2010Prop43
 90
        3
102
RTVSPost2010PropOp43
 70
     1
102
RTVSPost2010Prop44ColorIndex
 90
        5
102
RTVSPost2010Prop44ColorRGB
 90
      255
102
RTVSPost2010PropOp44
 70
     1
102
RTVSPost2010Prop45
280
     0
102
RTVSPost2010PropOp45
 70
     1
102
RTVSPost2010Prop46
 90
       50
102
RTVSPost2010PropOp46
 70
     1
102
RTVSPost2010Prop47
 90
       50
102
RTVSPost2010PropOp47
 70
     1
102
RTVSPost2010Prop48
 90
       50
102
RTVSPost2010PropOp48
 70
     1
102
RTVSPost2010Prop49
280
     0
102
RTVSPost2010PropOp49
 70
     1
102
RTVSPost2010Prop50
 90
       50
102
RTVSPost2010PropOp50
 70
     1
102
RTVSPost2010Prop51ColorIndex
 90
      256
102
RTVSPost2010Prop51ColorRGB
 90
-16777216
102
RTVSPost2010PropOp51
 70
     0
102
RTVSPost2010Prop52
140
1.0
102
RTVSPost2010PropOp52
 70
     0
102
RTVSPost2010Prop53
 90
        2
102
RTVSPost2010PropOp53
 70
     1
102
RTVSPost2010Prop54
  1
strokes_ogs.tif
102
RTVSPost2010PropOp54
 70
     1
102
RTVSPost2010Prop55
280
     0
102
RTVSPost2010PropOp55
 70
     1
102
RTVSPost2010Prop56
140
1.0
102
RTVSPost2010PropOp56
 70
     1
102
RTVSPost2010Prop57
140
1.0
102
RTVSPost2010PropOp57
 70
     1
102
RTVSPropertyOp0
 70
     1
102
RTVSPropertyOp1
 70
     1
102
RTVSPropertyOp2
 70
     1
102
RTVSPropertyOp3
 70
     1
102
RTVSPropertyOp4
 70
     1
102
RTVSPropertyOp5
 70
     1
102
RTVSPropertyOp6
 70
     1
102
RTVSPropertyOp7
 70
     1
102
RTVSPropertyOp8
 70
     1
102
RTVSPropertyOp9
 70
     1
102
RTVSPropertyOp10
 70
     1
102
RTVSPropertyOp11
 70
     1
102
RTVSPropertyOp12
 70
     1
102
RTVSPropertyOp13
 70
     1
102
RTVSPropertyOp14
 70
     1
102
RTVSPropertyOp15
 70
     1
102
RTVSPropertyOp16
 70
     1
102
RTVSPropertyOp17
 70
     1
102
RTVSPropertyOp18
 70
     1
102
RTVSPropertyOp19
 70
     1
102
RTVSPropertyOp20
 70
     1
102
RTVSPropertyOp21
 70
     1
102
RTVSPropertyOp22
 70
     1
102
RTVSPropertyOp23
 70
     1
102
RTVSPropertyOp24
 70
     1
102
RTVSPropertyOp25
 70
     1
102
RTVSPropertyOp26
 70
     1
102
RTVSPropertyOp27
 70
     1
102
RTVSPropertyOp28
 70
     1
102
RTVSPropertyOp29
 70
     1
102
RTVSPropertyOp30
 70
     1
102
RTVSPropertyOp31
 70
     1
102
RTVSPropertyOp32
 70
     1
102
RTVSPropertyOp33
 70
     1
102
RTVSPropertyOp34
 70
     1
102
RTVSPropertyOp35
 70
     1
102
RTVSPropertyOp36
 70
     1
102
RTVSPropertyOp37
 70
     1
102
RTVSPropertyOp38
 70
     1
102
RTVSPropertyOp39
 70
     1
102
RTVSPropertyOp40
 70
     1
102
RTVSPropertyOp41
 70
     1
102
RTVSPropertyOp42
 70
     1
102
RTVSPropertyOp43
 70
     1
102
RTVSPropertyOp44
 70
     1
102
RTVSPropertyOp45
 70
     1
102
RTVSPropertyOp46
 70
     1
102
RTVSPropertyOp47
 70
     1
102
RTVSPropertyOp48
 70
     1
102
RTVSPropertyOp49
 70
     1
102
RTVSPropertyOp50
 70
     1
102
RTVSPropertyOp51
 70
     0
102
RTVSPropertyOp52
 70
     0
102
RTVSPropertyOp53
 70
     1
102
RTVSPropertyOp54
 70
     1
102
RTVSPropertyOp55
 70
     1
102
RTVSPropertyOp56
 70
     1
102
RTVSPropertyOp57
 70
     1
102
RTVSPropertyOp58
 70
     1
102
RTVSPropertyOp59
 70
     1
102
RTVSPropertyOp60
 70
     1
102
RTVSPropertyOp61
 70
     1
102
RTVSPropertyOp62
 70
     1
  0
XRECORD
  5
2159
102
{ACAD_REACTORS
330
2158
102
}
330
2158
100
AcDbXrecord
280
     1
102
RTVSPost2010Prop28
280
     0
102
RTVSPost2010PropOp28
 70
     1
102
RTVSPost2010Prop29
280
     1
102
RTVSPost2010PropOp29
 70
     1
102
RTVSPost2010Prop30
280
     1
102
RTVSPost2010PropOp30
 70
     1
102
RTVSPost2010Prop31
280
     0
102
RTVSPost2010PropOp31
 70
     1
102
RTVSPost2010Prop32
280
     0
102
RTVSPost2010PropOp32
 70
     1
102
RTVSPost2010Prop33
280
     0
102
RTVSPost2010PropOp33
 70
     1
102
RTVSPost2010Prop34
280
     0
102
RTVSPost2010PropOp34
 70
     1
102
RTVSPost2010Prop35
280
     0
102
RTVSPost2010PropOp35
 70
     1
102
RTVSPost2010Prop36
280
     0
102
RTVSPost2010PropOp36
 70
     1
102
RTVSPost2010Prop37
 90
       50
102
RTVSPost2010PropOp37
 70
     1
102
RTVSPost2010Prop38
140
0.0
102
RTVSPost2010PropOp38
 70
     1
102
RTVSPost2010Prop39
140
1.0
102
RTVSPost2010PropOp39
 70
     1
102
RTVSPost2010Prop40
 90
        0
102
RTVSPost2010PropOp40
 70
     1
102
RTVSPost2010Prop41ColorIndex
 90
       18
102
RTVSPost2010Prop41ColorRGB
 90
        0
102
RTVSPost2010PropOp41
 70
     1
102
RTVSPost2010Prop42
 90
       50
102
RTVSPost2010PropOp42
 70
     1
102
RTVSPost2010Prop43
 90
        3
102
RTVSPost2010PropOp43
 70
     1
102
RTVSPost2010Prop44ColorIndex
 90
        5
102
RTVSPost2010Prop44ColorRGB
 90
      255
102
RTVSPost2010PropOp44
 70
     1
102
RTVSPost2010Prop45
280
     0
102
RTVSPost2010PropOp45
 70
     1
102
RTVSPost2010Prop46
 90
       50
102
RTVSPost2010PropOp46
 70
     1
102
RTVSPost2010Prop47
 90
       50
102
RTVSPost2010PropOp47
 70
     1
102
RTVSPost2010Prop48
 90
       50
102
RTVSPost2010PropOp48
 70
     1
102
RTVSPost2010Prop49
280
     0
102
RTVSPost2010PropOp49
 70
     1
102
RTVSPost2010Prop50
 90
       50
102
RTVSPost2010PropOp50
 70
     1
102
RTVSPost2010Prop51ColorIndex
 90
      256
102
RTVSPost2010Prop51ColorRGB
 90
-16777216
102
RTVSPost2010PropOp51
 70
     0
102
RTVSPost2010Prop52
140
1.0
102
RTVSPost2010PropOp52
 70
     0
102
RTVSPost2010Prop53
 90
        2
102
RTVSPost2010PropOp53
 70
     1
102
RTVSPost2010Prop54
  1
strokes_ogs.tif
102
RTVSPost2010PropOp54
 70
     1
102
RTVSPost2010Prop55
280
     0
102
RTVSPost2010PropOp55
 70
     1
102
RTVSPost2010Prop56
140
1.0
102
RTVSPost2010PropOp56
 70
     1
102
RTVSPost2010Prop57
140
1.0
102
RTVSPost2010PropOp57
 70
     1
102
RTVSPropertyOp0
 70
     1
102
RTVSPropertyOp1
 70
     1
102
RTVSPropertyOp2
 70
     1
102
RTVSPropertyOp3
 70
     1
102
RTVSPropertyOp4
 70
     1
102
RTVSPropertyOp5
 70
     1
102
RTVSPropertyOp6
 70
     1
102
RTVSPropertyOp7
 70
     1
102
RTVSPropertyOp8
 70
     1
102
RTVSPropertyOp9
 70
     1
102
RTVSPropertyOp10
 70
     1
102
RTVSPropertyOp11
 70
     1
102
RTVSPropertyOp12
 70
     1
102
RTVSPropertyOp13
 70
     1
102
RTVSPropertyOp14
 70
     1
102
RTVSPropertyOp15
 70
     1
102
RTVSPropertyOp16
 70
     1
102
RTVSPropertyOp17
 70
     1
102
RTVSPropertyOp18
 70
     1
102
RTVSPropertyOp19
 70
     1
102
RTVSPropertyOp20
 70
     1
102
RTVSPropertyOp21
 70
     1
102
RTVSPropertyOp22
 70
     1
102
RTVSPropertyOp23
 70
     1
102
RTVSPropertyOp24
 70
     1
102
RTVSPropertyOp25
 70
     1
102
RTVSPropertyOp26
 70
     1
102
RTVSPropertyOp27
 70
     1
102
RTVSPropertyOp28
 70
     1
102
RTVSPropertyOp29
 70
     1
102
RTVSPropertyOp30
 70
     1
102
RTVSPropertyOp31
 70
     1
102
RTVSPropertyOp32
 70
     1
102
RTVSPropertyOp33
 70
     1
102
RTVSPropertyOp34
 70
     1
102
RTVSPropertyOp35
 70
     1
102
RTVSPropertyOp36
 70
     1
102
RTVSPropertyOp37
 70
     1
102
RTVSPropertyOp38
 70
     1
102
RTVSPropertyOp39
 70
     1
102
RTVSPropertyOp40
 70
     1
102
RTVSPropertyOp41
 70
     1
102
RTVSPropertyOp42
 70
     1
102
RTVSPropertyOp43
 70
     1
102
RTVSPropertyOp44
 70
     1
102
RTVSPropertyOp45
 70
     1
102
RTVSPropertyOp46
 70
     1
102
RTVSPropertyOp47
 70
     1
102
RTVSPropertyOp48
 70
     1
102
RTVSPropertyOp49
 70
     1
102
RTVSPropertyOp50
 70
     1
102
RTVSPropertyOp51
 70
     0
102
RTVSPropertyOp52
 70
     0
102
RTVSPropertyOp53
 70
     1
102
RTVSPropertyOp54
 70
     1
102
RTVSPropertyOp55
 70
     1
102
RTVSPropertyOp56
 70
     1
102
RTVSPropertyOp57
 70
     1
102
RTVSPropertyOp58
 70
     1
102
RTVSPropertyOp59
 70
     1
102
RTVSPropertyOp60
 70
     1
102
RTVSPropertyOp61
 70
     1
102
RTVSPropertyOp62
 70
     1
  0
XRECORD
  5
2161
102
{ACAD_REACTORS
330
2160
102
}
330
2160
100
AcDbXrecord
280
     1
102
RTVSPost2010Prop28
280
     0
102
RTVSPost2010PropOp28
 70
     1
102
RTVSPost2010Prop29
280
     1
102
RTVSPost2010PropOp29
 70
     1
102
RTVSPost2010Prop30
280
     1
102
RTVSPost2010PropOp30
 70
     1
102
RTVSPost2010Prop31
280
     0
102
RTVSPost2010PropOp31
 70
     1
102
RTVSPost2010Prop32
280
     0
102
RTVSPost2010PropOp32
 70
     1
102
RTVSPost2010Prop33
280
     0
102
RTVSPost2010PropOp33
 70
     1
102
RTVSPost2010Prop34
280
     0
102
RTVSPost2010PropOp34
 70
     1
102
RTVSPost2010Prop35
280
     0
102
RTVSPost2010PropOp35
 70
     1
102
RTVSPost2010Prop36
280
     0
102
RTVSPost2010PropOp36
 70
     1
102
RTVSPost2010Prop37
 90
       50
102
RTVSPost2010PropOp37
 70
     1
102
RTVSPost2010Prop38
140
0.0
102
RTVSPost2010PropOp38
 70
     1
102
RTVSPost2010Prop39
140
1.0
102
RTVSPost2010PropOp39
 70
     1
102
RTVSPost2010Prop40
 90
        0
102
RTVSPost2010PropOp40
 70
     1
102
RTVSPost2010Prop41ColorIndex
 90
       18
102
RTVSPost2010Prop41ColorRGB
 90
        0
102
RTVSPost2010PropOp41
 70
     1
102
RTVSPost2010Prop42
 90
       50
102
RTVSPost2010PropOp42
 70
     1
102
RTVSPost2010Prop43
 90
        3
102
RTVSPost2010PropOp43
 70
     1
102
RTVSPost2010Prop44ColorIndex
 90
        5
102
RTVSPost2010Prop44ColorRGB
 90
      255
102
RTVSPost2010PropOp44
 70
     1
102
RTVSPost2010Prop45
280
     0
102
RTVSPost2010PropOp45
 70
     1
102
RTVSPost2010Prop46
 90
       50
102
RTVSPost2010PropOp46
 70
     1
102
RTVSPost2010Prop47
 90
       50
102
RTVSPost2010PropOp47
 70
     1
102
RTVSPost2010Prop48
 90
       50
102
RTVSPost2010PropOp48
 70
     1
102
RTVSPost2010Prop49
280
     0
102
RTVSPost2010PropOp49
 70
     1
102
RTVSPost2010Prop50
 90
       50
102
RTVSPost2010PropOp50
 70
     1
102
RTVSPost2010Prop51ColorIndex
 90
      256
102
RTVSPost2010Prop51ColorRGB
 90
-16777216
102
RTVSPost2010PropOp51
 70
     0
102
RTVSPost2010Prop52
140
1.0
102
RTVSPost2010PropOp52
 70
     0
102
RTVSPost2010Prop53
 90
        2
102
RTVSPost2010PropOp53
 70
     1
102
RTVSPost2010Prop54
  1
strokes_ogs.tif
102
RTVSPost2010PropOp54
 70
     1
102
RTVSPost2010Prop55
280
     0
102
RTVSPost2010PropOp55
 70
     1
102
RTVSPost2010Prop56
140
1.0
102
RTVSPost2010PropOp56
 70
     1
102
RTVSPost2010Prop57
140
1.0
102
RTVSPost2010PropOp57
 70
     1
102
RTVSPropertyOp0
 70
     1
102
RTVSPropertyOp1
 70
     1
102
RTVSPropertyOp2
 70
     1
102
RTVSPropertyOp3
 70
     1
102
RTVSPropertyOp4
 70
     1
102
RTVSPropertyOp5
 70
     1
102
RTVSPropertyOp6
 70
     1
102
RTVSPropertyOp7
 70
     1
102
RTVSPropertyOp8
 70
     1
102
RTVSPropertyOp9
 70
     1
102
RTVSPropertyOp10
 70
     1
102
RTVSPropertyOp11
 70
     1
102
RTVSPropertyOp12
 70
     1
102
RTVSPropertyOp13
 70
     1
102
RTVSPropertyOp14
 70
     1
102
RTVSPropertyOp15
 70
     1
102
RTVSPropertyOp16
 70
     1
102
RTVSPropertyOp17
 70
     1
102
RTVSPropertyOp18
 70
     1
102
RTVSPropertyOp19
 70
     1
102
RTVSPropertyOp20
 70
     1
102
RTVSPropertyOp21
 70
     1
102
RTVSPropertyOp22
 70
     1
102
RTVSPropertyOp23
 70
     1
102
RTVSPropertyOp24
 70
     1
102
RTVSPropertyOp25
 70
     1
102
RTVSPropertyOp26
 70
     1
102
RTVSPropertyOp27
 70
     1
102
RTVSPropertyOp28
 70
     1
102
RTVSPropertyOp29
 70
     1
102
RTVSPropertyOp30
 70
     1
102
RTVSPropertyOp31
 70
     1
102
RTVSPropertyOp32
 70
     1
102
RTVSPropertyOp33
 70
     1
102
RTVSPropertyOp34
 70
     1
102
RTVSPropertyOp35
 70
     1
102
RTVSPropertyOp36
 70
     1
102
RTVSPropertyOp37
 70
     1
102
RTVSPropertyOp38
 70
     1
102
RTVSPropertyOp39
 70
     1
102
RTVSPropertyOp40
 70
     1
102
RTVSPropertyOp41
 70
     1
102
RTVSPropertyOp42
 70
     1
102
RTVSPropertyOp43
 70
     1
102
RTVSPropertyOp44
 70
     1
102
RTVSPropertyOp45
 70
     1
102
RTVSPropertyOp46
 70
     1
102
RTVSPropertyOp47
 70
     1
102
RTVSPropertyOp48
 70
     1
102
RTVSPropertyOp49
 70
     1
102
RTVSPropertyOp50
 70
     1
102
RTVSPropertyOp51
 70
     0
102
RTVSPropertyOp52
 70
     0
102
RTVSPropertyOp53
 70
     1
102
RTVSPropertyOp54
 70
     1
102
RTVSPropertyOp55
 70
     1
102
RTVSPropertyOp56
 70
     1
102
RTVSPropertyOp57
 70
     1
102
RTVSPropertyOp58
 70
     1
102
RTVSPropertyOp59
 70
     1
102
RTVSPropertyOp60
 70
     1
102
RTVSPropertyOp61
 70
     1
102
RTVSPropertyOp62
 70
     1
  0
XRECORD
  5
2153
102
{ACAD_REACTORS
330
2152
102
}
330
2152
100
AcDbXrecord
280
     1
102
RTVSPost2010Prop28
280
     0
102
RTVSPost2010PropOp28
 70
     1
102
RTVSPost2010Prop29
280
     1
102
RTVSPost2010PropOp29
 70
     1
102
RTVSPost2010Prop30
280
     1
102
RTVSPost2010PropOp30
 70
     1
102
RTVSPost2010Prop31
280
     0
102
RTVSPost2010PropOp31
 70
     1
102
RTVSPost2010Prop32
280
     0
102
RTVSPost2010PropOp32
 70
     1
102
RTVSPost2010Prop33
280
     0
102
RTVSPost2010PropOp33
 70
     1
102
RTVSPost2010Prop34
280
     0
102
RTVSPost2010PropOp34
 70
     1
102
RTVSPost2010Prop35
280
     0
102
RTVSPost2010PropOp35
 70
     1
102
RTVSPost2010Prop36
280
     0
102
RTVSPost2010PropOp36
 70
     1
102
RTVSPost2010Prop37
 90
       50
102
RTVSPost2010PropOp37
 70
     1
102
RTVSPost2010Prop38
140
0.0
102
RTVSPost2010PropOp38
 70
     1
102
RTVSPost2010Prop39
140
1.0
102
RTVSPost2010PropOp39
 70
     1
102
RTVSPost2010Prop40
 90
        0
102
RTVSPost2010PropOp40
 70
     1
102
RTVSPost2010Prop41ColorIndex
 90
       18
102
RTVSPost2010Prop41ColorRGB
 90
        0
102
RTVSPost2010PropOp41
 70
     1
102
RTVSPost2010Prop42
 90
       50
102
RTVSPost2010PropOp42
 70
     1
102
RTVSPost2010Prop43
 90
        3
102
RTVSPost2010PropOp43
 70
     1
102
RTVSPost2010Prop44ColorIndex
 90
        5
102
RTVSPost2010Prop44ColorRGB
 90
      255
102
RTVSPost2010PropOp44
 70
     1
102
RTVSPost2010Prop45
280
     0
102
RTVSPost2010PropOp45
 70
     1
102
RTVSPost2010Prop46
 90
       50
102
RTVSPost2010PropOp46
 70
     1
102
RTVSPost2010Prop47
 90
       50
102
RTVSPost2010PropOp47
 70
     1
102
RTVSPost2010Prop48
 90
       50
102
RTVSPost2010PropOp48
 70
     1
102
RTVSPost2010Prop49
280
     0
102
RTVSPost2010PropOp49
 70
     1
102
RTVSPost2010Prop50
 90
       50
102
RTVSPost2010PropOp50
 70
     1
102
RTVSPost2010Prop51ColorIndex
 90
      256
102
RTVSPost2010Prop51ColorRGB
 90
-16777216
102
RTVSPost2010PropOp51
 70
     0
102
RTVSPost2010Prop52
140
1.0
102
RTVSPost2010PropOp52
 70
     0
102
RTVSPost2010Prop53
 90
        2
102
RTVSPost2010PropOp53
 70
     1
102
RTVSPost2010Prop54
  1
strokes_ogs.tif
102
RTVSPost2010PropOp54
 70
     1
102
RTVSPost2010Prop55
280
     0
102
RTVSPost2010PropOp55
 70
     1
102
RTVSPost2010Prop56
140
1.0
102
RTVSPost2010PropOp56
 70
     1
102
RTVSPost2010Prop57
140
1.0
102
RTVSPost2010PropOp57
 70
     1
102
RTVSPropertyOp0
 70
     1
102
RTVSPropertyOp1
 70
     1
102
RTVSPropertyOp2
 70
     1
102
RTVSPropertyOp3
 70
     1
102
RTVSPropertyOp4
 70
     1
102
RTVSPropertyOp5
 70
     1
102
RTVSPropertyOp6
 70
     1
102
RTVSPropertyOp7
 70
     1
102
RTVSPropertyOp8
 70
     1
102
RTVSPropertyOp9
 70
     1
102
RTVSPropertyOp10
 70
     1
102
RTVSPropertyOp11
 70
     1
102
RTVSPropertyOp12
 70
     1
102
RTVSPropertyOp13
 70
     1
102
RTVSPropertyOp14
 70
     1
102
RTVSPropertyOp15
 70
     1
102
RTVSPropertyOp16
 70
     1
102
RTVSPropertyOp17
 70
     1
102
RTVSPropertyOp18
 70
     1
102
RTVSPropertyOp19
 70
     1
102
RTVSPropertyOp20
 70
     1
102
RTVSPropertyOp21
 70
     1
102
RTVSPropertyOp22
 70
     1
102
RTVSPropertyOp23
 70
     1
102
RTVSPropertyOp24
 70
     1
102
RTVSPropertyOp25
 70
     1
102
RTVSPropertyOp26
 70
     1
102
RTVSPropertyOp27
 70
     1
102
RTVSPropertyOp28
 70
     1
102
RTVSPropertyOp29
 70
     1
102
RTVSPropertyOp30
 70
     1
102
RTVSPropertyOp31
 70
     1
102
RTVSPropertyOp32
 70
     1
102
RTVSPropertyOp33
 70
     1
102
RTVSPropertyOp34
 70
     1
102
RTVSPropertyOp35
 70
     1
102
RTVSPropertyOp36
 70
     1
102
RTVSPropertyOp37
 70
     1
102
RTVSPropertyOp38
 70
     1
102
RTVSPropertyOp39
 70
     1
102
RTVSPropertyOp40
 70
     1
102
RTVSPropertyOp41
 70
     1
102
RTVSPropertyOp42
 70
     1
102
RTVSPropertyOp43
 70
     1
102
RTVSPropertyOp44
 70
     1
102
RTVSPropertyOp45
 70
     1
102
RTVSPropertyOp46
 70
     1
102
RTVSPropertyOp47
 70
     1
102
RTVSPropertyOp48
 70
     1
102
RTVSPropertyOp49
 70
     1
102
RTVSPropertyOp50
 70
     1
102
RTVSPropertyOp51
 70
     0
102
RTVSPropertyOp52
 70
     0
102
RTVSPropertyOp53
 70
     1
102
RTVSPropertyOp54
 70
     1
102
RTVSPropertyOp55
 70
     1
102
RTVSPropertyOp56
 70
     1
102
RTVSPropertyOp57
 70
     1
102
RTVSPropertyOp58
 70
     1
102
RTVSPropertyOp59
 70
     1
102
RTVSPropertyOp60
 70
     1
102
RTVSPropertyOp61
 70
     1
102
RTVSPropertyOp62
 70
     1
  0
XRECORD
  5
2157
102
{ACAD_REACTORS
330
2156
102
}
330
2156
100
AcDbXrecord
280
     1
102
RTVSPost2010Prop28
280
     0
102
RTVSPost2010PropOp28
 70
     1
102
RTVSPost2010Prop29
280
     1
102
RTVSPost2010PropOp29
 70
     1
102
RTVSPost2010Prop30
280
     1
102
RTVSPost2010PropOp30
 70
     1
102
RTVSPost2010Prop31
280
     0
102
RTVSPost2010PropOp31
 70
     1
102
RTVSPost2010Prop32
280
     0
102
RTVSPost2010PropOp32
 70
     1
102
RTVSPost2010Prop33
280
     0
102
RTVSPost2010PropOp33
 70
     1
102
RTVSPost2010Prop34
280
     0
102
RTVSPost2010PropOp34
 70
     1
102
RTVSPost2010Prop35
280
     0
102
RTVSPost2010PropOp35
 70
     1
102
RTVSPost2010Prop36
280
     0
102
RTVSPost2010PropOp36
 70
     1
102
RTVSPost2010Prop37
 90
       50
102
RTVSPost2010PropOp37
 70
     1
102
RTVSPost2010Prop38
140
0.0
102
RTVSPost2010PropOp38
 70
     1
102
RTVSPost2010Prop39
140
1.0
102
RTVSPost2010PropOp39
 70
     1
102
RTVSPost2010Prop40
 90
        0
102
RTVSPost2010PropOp40
 70
     1
102
RTVSPost2010Prop41ColorIndex
 90
       18
102
RTVSPost2010Prop41ColorRGB
 90
        0
102
RTVSPost2010PropOp41
 70
     1
102
RTVSPost2010Prop42
 90
       50
102
RTVSPost2010PropOp42
 70
     1
102
RTVSPost2010Prop43
 90
        3
102
RTVSPost2010PropOp43
 70
     1
102
RTVSPost2010Prop44ColorIndex
 90
        5
102
RTVSPost2010Prop44ColorRGB
 90
      255
102
RTVSPost2010PropOp44
 70
     1
102
RTVSPost2010Prop45
280
     0
102
RTVSPost2010PropOp45
 70
     1
102
RTVSPost2010Prop46
 90
       50
102
RTVSPost2010PropOp46
 70
     1
102
RTVSPost2010Prop47
 90
       50
102
RTVSPost2010PropOp47
 70
     1
102
RTVSPost2010Prop48
 90
       50
102
RTVSPost2010PropOp48
 70
     1
102
RTVSPost2010Prop49
280
     0
102
RTVSPost2010PropOp49
 70
     1
102
RTVSPost2010Prop50
 90
       50
102
RTVSPost2010PropOp50
 70
     1
102
RTVSPost2010Prop51ColorIndex
 90
      256
102
RTVSPost2010Prop51ColorRGB
 90
-16777216
102
RTVSPost2010PropOp51
 70
     0
102
RTVSPost2010Prop52
140
1.0
102
RTVSPost2010PropOp52
 70
     0
102
RTVSPost2010Prop53
 90
        2
102
RTVSPost2010PropOp53
 70
     1
102
RTVSPost2010Prop54
  1
strokes_ogs.tif
102
RTVSPost2010PropOp54
 70
     1
102
RTVSPost2010Prop55
280
     0
102
RTVSPost2010PropOp55
 70
     1
102
RTVSPost2010Prop56
140
1.0
102
RTVSPost2010PropOp56
 70
     1
102
RTVSPost2010Prop57
140
1.0
102
RTVSPost2010PropOp57
 70
     1
102
RTVSPropertyOp0
 70
     1
102
RTVSPropertyOp1
 70
     1
102
RTVSPropertyOp2
 70
     1
102
RTVSPropertyOp3
 70
     1
102
RTVSPropertyOp4
 70
     1
102
RTVSPropertyOp5
 70
     1
102
RTVSPropertyOp6
 70
     1
102
RTVSPropertyOp7
 70
     1
102
RTVSPropertyOp8
 70
     1
102
RTVSPropertyOp9
 70
     1
102
RTVSPropertyOp10
 70
     1
102
RTVSPropertyOp11
 70
     1
102
RTVSPropertyOp12
 70
     1
102
RTVSPropertyOp13
 70
     1
102
RTVSPropertyOp14
 70
     1
102
RTVSPropertyOp15
 70
     1
102
RTVSPropertyOp16
 70
     1
102
RTVSPropertyOp17
 70
     1
102
RTVSPropertyOp18
 70
     1
102
RTVSPropertyOp19
 70
     1
102
RTVSPropertyOp20
 70
     1
102
RTVSPropertyOp21
 70
     1
102
RTVSPropertyOp22
 70
     1
102
RTVSPropertyOp23
 70
     1
102
RTVSPropertyOp24
 70
     1
102
RTVSPropertyOp25
 70
     1
102
RTVSPropertyOp26
 70
     1
102
RTVSPropertyOp27
 70
     1
102
RTVSPropertyOp28
 70
     1
102
RTVSPropertyOp29
 70
     1
102
RTVSPropertyOp30
 70
     1
102
RTVSPropertyOp31
 70
     1
102
RTVSPropertyOp32
 70
     1
102
RTVSPropertyOp33
 70
     1
102
RTVSPropertyOp34
 70
     1
102
RTVSPropertyOp35
 70
     1
102
RTVSPropertyOp36
 70
     1
102
RTVSPropertyOp37
 70
     1
102
RTVSPropertyOp38
 70
     1
102
RTVSPropertyOp39
 70
     1
102
RTVSPropertyOp40
 70
     1
102
RTVSPropertyOp41
 70
     1
102
RTVSPropertyOp42
 70
     1
102
RTVSPropertyOp43
 70
     1
102
RTVSPropertyOp44
 70
     1
102
RTVSPropertyOp45
 70
     1
102
RTVSPropertyOp46
 70
     1
102
RTVSPropertyOp47
 70
     1
102
RTVSPropertyOp48
 70
     1
102
RTVSPropertyOp49
 70
     1
102
RTVSPropertyOp50
 70
     1
102
RTVSPropertyOp51
 70
     0
102
RTVSPropertyOp52
 70
     0
102
RTVSPropertyOp53
 70
     1
102
RTVSPropertyOp54
 70
     1
102
RTVSPropertyOp55
 70
     1
102
RTVSPropertyOp56
 70
     1
102
RTVSPropertyOp57
 70
     1
102
RTVSPropertyOp58
 70
     1
102
RTVSPropertyOp59
 70
     1
102
RTVSPropertyOp60
 70
     1
102
RTVSPropertyOp61
 70
     1
102
RTVSPropertyOp62
 70
     1
  0
XRECORD
  5
2169
102
{ACAD_REACTORS
330
2168
102
}
330
2168
100
AcDbXrecord
280
     1
102
RTVSPost2010Prop28
280
     0
102
RTVSPost2010PropOp28
 70
     1
102
RTVSPost2010Prop29
280
     1
102
RTVSPost2010PropOp29
 70
     1
102
RTVSPost2010Prop30
280
     1
102
RTVSPost2010PropOp30
 70
     1
102
RTVSPost2010Prop31
280
     0
102
RTVSPost2010PropOp31
 70
     1
102
RTVSPost2010Prop32
280
     0
102
RTVSPost2010PropOp32
 70
     1
102
RTVSPost2010Prop33
280
     0
102
RTVSPost2010PropOp33
 70
     1
102
RTVSPost2010Prop34
280
     0
102
RTVSPost2010PropOp34
 70
     1
102
RTVSPost2010Prop35
280
     0
102
RTVSPost2010PropOp35
 70
     1
102
RTVSPost2010Prop36
280
     0
102
RTVSPost2010PropOp36
 70
     1
102
RTVSPost2010Prop37
 90
       50
102
RTVSPost2010PropOp37
 70
     1
102
RTVSPost2010Prop38
140
0.0
102
RTVSPost2010PropOp38
 70
     1
102
RTVSPost2010Prop39
140
1.0
102
RTVSPost2010PropOp39
 70
     1
102
RTVSPost2010Prop40
 90
        0
102
RTVSPost2010PropOp40
 70
     1
102
RTVSPost2010Prop41ColorIndex
 90
       18
102
RTVSPost2010Prop41ColorRGB
 90
        0
102
RTVSPost2010PropOp41
 70
     1
102
RTVSPost2010Prop42
 90
       50
102
RTVSPost2010PropOp42
 70
     1
102
RTVSPost2010Prop43
 90
        3
102
RTVSPost2010PropOp43
 70
     1
102
RTVSPost2010Prop44ColorIndex
 90
        5
102
RTVSPost2010Prop44ColorRGB
 90
      255
102
RTVSPost2010PropOp44
 70
     1
102
RTVSPost2010Prop45
280
     0
102
RTVSPost2010PropOp45
 70
     1
102
RTVSPost2010Prop46
 90
       50
102
RTVSPost2010PropOp46
 70
     1
102
RTVSPost2010Prop47
 90
       50
102
RTVSPost2010PropOp47
 70
     1
102
RTVSPost2010Prop48
 90
       50
102
RTVSPost2010PropOp48
 70
     1
102
RTVSPost2010Prop49
280
     0
102
RTVSPost2010PropOp49
 70
     1
102
RTVSPost2010Prop50
 90
       50
102
RTVSPost2010PropOp50
 70
     1
102
RTVSPost2010Prop51ColorIndex
 90
      256
102
RTVSPost2010Prop51ColorRGB
 90
-16777216
102
RTVSPost2010PropOp51
 70
     0
102
RTVSPost2010Prop52
140
1.0
102
RTVSPost2010PropOp52
 70
     0
102
RTVSPost2010Prop53
 90
        2
102
RTVSPost2010PropOp53
 70
     1
102
RTVSPost2010Prop54
  1
strokes_ogs.tif
102
RTVSPost2010PropOp54
 70
     1
102
RTVSPost2010Prop55
280
     0
102
RTVSPost2010PropOp55
 70
     1
102
RTVSPost2010Prop56
140
1.0
102
RTVSPost2010PropOp56
 70
     1
102
RTVSPost2010Prop57
140
1.0
102
RTVSPost2010PropOp57
 70
     1
102
RTVSPropertyOp0
 70
     0
102
RTVSPropertyOp1
 70
     0
102
RTVSPropertyOp2
 70
     0
102
RTVSPropertyOp3
 70
     0
102
RTVSPropertyOp4
 70
     0
102
RTVSPropertyOp5
 70
     0
102
RTVSPropertyOp6
 70
     0
102
RTVSPropertyOp7
 70
     0
102
RTVSPropertyOp8
 70
     0
102
RTVSPropertyOp9
 70
     0
102
RTVSPropertyOp10
 70
     0
102
RTVSPropertyOp11
 70
     0
102
RTVSPropertyOp12
 70
     0
102
RTVSPropertyOp13
 70
     0
102
RTVSPropertyOp14
 70
     2
102
RTVSPropertyOp15
 70
     0
102
RTVSPropertyOp16
 70
     0
102
RTVSPropertyOp17
 70
     0
102
RTVSPropertyOp18
 70
     0
102
RTVSPropertyOp19
 70
     0
102
RTVSPropertyOp20
 70
     0
102
RTVSPropertyOp21
 70
     0
102
RTVSPropertyOp22
 70
     0
102
RTVSPropertyOp23
 70
     0
102
RTVSPropertyOp24
 70
     0
102
RTVSPropertyOp25
 70
     0
102
RTVSPropertyOp26
 70
     0
102
RTVSPropertyOp27
 70
     0
102
RTVSPropertyOp28
 70
     1
102
RTVSPropertyOp29
 70
     1
102
RTVSPropertyOp30
 70
     1
102
RTVSPropertyOp31
 70
     1
102
RTVSPropertyOp32
 70
     1
102
RTVSPropertyOp33
 70
     1
102
RTVSPropertyOp34
 70
     1
102
RTVSPropertyOp35
 70
     1
102
RTVSPropertyOp36
 70
     1
102
RTVSPropertyOp37
 70
     1
102
RTVSPropertyOp38
 70
     1
102
RTVSPropertyOp39
 70
     1
102
RTVSPropertyOp40
 70
     1
102
RTVSPropertyOp41
 70
     1
102
RTVSPropertyOp42
 70
     1
102
RTVSPropertyOp43
 70
     1
102
RTVSPropertyOp44
 70
     1
102
RTVSPropertyOp45
 70
     1
102
RTVSPropertyOp46
 70
     1
102
RTVSPropertyOp47
 70
     1
102
RTVSPropertyOp48
 70
     1
102
RTVSPropertyOp49
 70
     1
102
RTVSPropertyOp50
 70
     1
102
RTVSPropertyOp51
 70
     0
102
RTVSPropertyOp52
 70
     0
102
RTVSPropertyOp53
 70
     1
102
RTVSPropertyOp54
 70
     1
102
RTVSPropertyOp55
 70
     1
102
RTVSPropertyOp56
 70
     1
102
RTVSPropertyOp57
 70
     1
102
RTVSPropertyOp58
 70
     1
102
RTVSPropertyOp59
 70
     1
102
RTVSPropertyOp60
 70
     1
102
RTVSPropertyOp61
 70
     1
102
RTVSPropertyOp62
 70
     1
  0
XRECORD
  5
215F
102
{ACAD_REACTORS
330
215E
102
}
330
215E
100
AcDbXrecord
280
     1
102
RTVSPost2010Prop28
280
     0
102
RTVSPost2010PropOp28
 70
     1
102
RTVSPost2010Prop29
280
     1
102
RTVSPost2010PropOp29
 70
     1
102
RTVSPost2010Prop30
280
     1
102
RTVSPost2010PropOp30
 70
     1
102
RTVSPost2010Prop31
280
     0
102
RTVSPost2010PropOp31
 70
     1
102
RTVSPost2010Prop32
280
     0
102
RTVSPost2010PropOp32
 70
     1
102
RTVSPost2010Prop33
280
     0
102
RTVSPost2010PropOp33
 70
     1
102
RTVSPost2010Prop34
280
     0
102
RTVSPost2010PropOp34
 70
     1
102
RTVSPost2010Prop35
280
     0
102
RTVSPost2010PropOp35
 70
     1
102
RTVSPost2010Prop36
280
     0
102
RTVSPost2010PropOp36
 70
     1
102
RTVSPost2010Prop37
 90
       50
102
RTVSPost2010PropOp37
 70
     1
102
RTVSPost2010Prop38
140
0.0
102
RTVSPost2010PropOp38
 70
     1
102
RTVSPost2010Prop39
140
1.0
102
RTVSPost2010PropOp39
 70
     1
102
RTVSPost2010Prop40
 90
        0
102
RTVSPost2010PropOp40
 70
     1
102
RTVSPost2010Prop41ColorIndex
 90
       18
102
RTVSPost2010Prop41ColorRGB
 90
        0
102
RTVSPost2010PropOp41
 70
     1
102
RTVSPost2010Prop42
 90
       50
102
RTVSPost2010PropOp42
 70
     1
102
RTVSPost2010Prop43
 90
        3
102
RTVSPost2010PropOp43
 70
     1
102
RTVSPost2010Prop44ColorIndex
 90
        5
102
RTVSPost2010Prop44ColorRGB
 90
      255
102
RTVSPost2010PropOp44
 70
     1
102
RTVSPost2010Prop45
280
     0
102
RTVSPost2010PropOp45
 70
     1
102
RTVSPost2010Prop46
 90
       50
102
RTVSPost2010PropOp46
 70
     1
102
RTVSPost2010Prop47
 90
       50
102
RTVSPost2010PropOp47
 70
     1
102
RTVSPost2010Prop48
 90
       50
102
RTVSPost2010PropOp48
 70
     1
102
RTVSPost2010Prop49
280
     0
102
RTVSPost2010PropOp49
 70
     1
102
RTVSPost2010Prop50
 90
       50
102
RTVSPost2010PropOp50
 70
     1
102
RTVSPost2010Prop51ColorIndex
 90
      256
102
RTVSPost2010Prop51ColorRGB
 90
-16777216
102
RTVSPost2010PropOp51
 70
     0
102
RTVSPost2010Prop52
140
1.0
102
RTVSPost2010PropOp52
 70
     0
102
RTVSPost2010Prop53
 90
        2
102
RTVSPost2010PropOp53
 70
     1
102
RTVSPost2010Prop54
  1
strokes_ogs.tif
102
RTVSPost2010PropOp54
 70
     1
102
RTVSPost2010Prop55
280
     0
102
RTVSPost2010PropOp55
 70
     1
102
RTVSPost2010Prop56
140
1.0
102
RTVSPost2010PropOp56
 70
     1
102
RTVSPost2010Prop57
140
1.0
102
RTVSPost2010PropOp57
 70
     1
102
RTVSPropertyOp0
 70
     1
102
RTVSPropertyOp1
 70
     1
102
RTVSPropertyOp2
 70
     1
102
RTVSPropertyOp3
 70
     1
102
RTVSPropertyOp4
 70
     1
102
RTVSPropertyOp5
 70
     1
102
RTVSPropertyOp6
 70
     1
102
RTVSPropertyOp7
 70
     1
102
RTVSPropertyOp8
 70
     1
102
RTVSPropertyOp9
 70
     1
102
RTVSPropertyOp10
 70
     1
102
RTVSPropertyOp11
 70
     1
102
RTVSPropertyOp12
 70
     1
102
RTVSPropertyOp13
 70
     1
102
RTVSPropertyOp14
 70
     1
102
RTVSPropertyOp15
 70
     1
102
RTVSPropertyOp16
 70
     1
102
RTVSPropertyOp17
 70
     1
102
RTVSPropertyOp18
 70
     1
102
RTVSPropertyOp19
 70
     1
102
RTVSPropertyOp20
 70
     1
102
RTVSPropertyOp21
 70
     1
102
RTVSPropertyOp22
 70
     1
102
RTVSPropertyOp23
 70
     1
102
RTVSPropertyOp24
 70
     1
102
RTVSPropertyOp25
 70
     1
102
RTVSPropertyOp26
 70
     1
102
RTVSPropertyOp27
 70
     1
102
RTVSPropertyOp28
 70
     1
102
RTVSPropertyOp29
 70
     1
102
RTVSPropertyOp30
 70
     1
102
RTVSPropertyOp31
 70
     1
102
RTVSPropertyOp32
 70
     1
102
RTVSPropertyOp33
 70
     1
102
RTVSPropertyOp34
 70
     1
102
RTVSPropertyOp35
 70
     1
102
RTVSPropertyOp36
 70
     1
102
RTVSPropertyOp37
 70
     1
102
RTVSPropertyOp38
 70
     1
102
RTVSPropertyOp39
 70
     1
102
RTVSPropertyOp40
 70
     1
102
RTVSPropertyOp41
 70
     1
102
RTVSPropertyOp42
 70
     1
102
RTVSPropertyOp43
 70
     1
102
RTVSPropertyOp44
 70
     1
102
RTVSPropertyOp45
 70
     1
102
RTVSPropertyOp46
 70
     1
102
RTVSPropertyOp47
 70
     1
102
RTVSPropertyOp48
 70
     1
102
RTVSPropertyOp49
 70
     1
102
RTVSPropertyOp50
 70
     1
102
RTVSPropertyOp51
 70
     0
102
RTVSPropertyOp52
 70
     0
102
RTVSPropertyOp53
 70
     1
102
RTVSPropertyOp54
 70
     1
102
RTVSPropertyOp55
 70
     1
102
RTVSPropertyOp56
 70
     1
102
RTVSPropertyOp57
 70
     1
102
RTVSPropertyOp58
 70
     1
102
RTVSPropertyOp59
 70
     1
102
RTVSPropertyOp60
 70
     1
102
RTVSPropertyOp61
 70
     1
102
RTVSPropertyOp62
 70
     1
  0
XRECORD
  5
2143
102
{ACAD_REACTORS
330
2142
102
}
330
2142
100
AcDbXrecord
280
     1
102
RTVSPost2010Prop28
280
     0
102
RTVSPost2010PropOp28
 70
     1
102
RTVSPost2010Prop29
280
     1
102
RTVSPost2010PropOp29
 70
     1
102
RTVSPost2010Prop30
280
     1
102
RTVSPost2010PropOp30
 70
     1
102
RTVSPost2010Prop31
280
     0
102
RTVSPost2010PropOp31
 70
     1
102
RTVSPost2010Prop32
280
     0
102
RTVSPost2010PropOp32
 70
     1
102
RTVSPost2010Prop33
280
     0
102
RTVSPost2010PropOp33
 70
     1
102
RTVSPost2010Prop34
280
     0
102
RTVSPost2010PropOp34
 70
     1
102
RTVSPost2010Prop35
280
     0
102
RTVSPost2010PropOp35
 70
     1
102
RTVSPost2010Prop36
280
     0
102
RTVSPost2010PropOp36
 70
     1
102
RTVSPost2010Prop37
 90
       50
102
RTVSPost2010PropOp37
 70
     1
102
RTVSPost2010Prop38
140
0.0
102
RTVSPost2010PropOp38
 70
     1
102
RTVSPost2010Prop39
140
1.0
102
RTVSPost2010PropOp39
 70
     1
102
RTVSPost2010Prop40
 90
        0
102
RTVSPost2010PropOp40
 70
     1
102
RTVSPost2010Prop41ColorIndex
 90
       18
102
RTVSPost2010Prop41ColorRGB
 90
        0
102
RTVSPost2010PropOp41
 70
     1
102
RTVSPost2010Prop42
 90
       50
102
RTVSPost2010PropOp42
 70
     1
102
RTVSPost2010Prop43
 90
        3
102
RTVSPost2010PropOp43
 70
     1
102
RTVSPost2010Prop44ColorIndex
 90
        5
102
RTVSPost2010Prop44ColorRGB
 90
      255
102
RTVSPost2010PropOp44
 70
     1
102
RTVSPost2010Prop45
280
     0
102
RTVSPost2010PropOp45
 70
     1
102
RTVSPost2010Prop46
 90
       50
102
RTVSPost2010PropOp46
 70
     1
102
RTVSPost2010Prop47
 90
       50
102
RTVSPost2010PropOp47
 70
     1
102
RTVSPost2010Prop48
 90
       50
102
RTVSPost2010PropOp48
 70
     1
102
RTVSPost2010Prop49
280
     0
102
RTVSPost2010PropOp49
 70
     1
102
RTVSPost2010Prop50
 90
       50
102
RTVSPost2010PropOp50
 70
     1
102
RTVSPost2010Prop51ColorIndex
 90
      256
102
RTVSPost2010Prop51ColorRGB
 90
-16777216
102
RTVSPost2010PropOp51
 70
     0
102
RTVSPost2010Prop52
140
1.0
102
RTVSPost2010PropOp52
 70
     0
102
RTVSPost2010Prop53
 90
        2
102
RTVSPost2010PropOp53
 70
     1
102
RTVSPost2010Prop54
  1
strokes_ogs.tif
102
RTVSPost2010PropOp54
 70
     1
102
RTVSPost2010Prop55
280
     0
102
RTVSPost2010PropOp55
 70
     1
102
RTVSPost2010Prop56
140
1.0
102
RTVSPost2010PropOp56
 70
     1
102
RTVSPost2010Prop57
140
1.0
102
RTVSPost2010PropOp57
 70
     1
102
RTVSPropertyOp0
 70
     1
102
RTVSPropertyOp1
 70
     1
102
RTVSPropertyOp2
 70
     1
102
RTVSPropertyOp3
 70
     1
102
RTVSPropertyOp4
 70
     1
102
RTVSPropertyOp5
 70
     1
102
RTVSPropertyOp6
 70
     1
102
RTVSPropertyOp7
 70
     1
102
RTVSPropertyOp8
 70
     1
102
RTVSPropertyOp9
 70
     1
102
RTVSPropertyOp10
 70
     1
102
RTVSPropertyOp11
 70
     1
102
RTVSPropertyOp12
 70
     1
102
RTVSPropertyOp13
 70
     1
102
RTVSPropertyOp14
 70
     1
102
RTVSPropertyOp15
 70
     1
102
RTVSPropertyOp16
 70
     1
102
RTVSPropertyOp17
 70
     1
102
RTVSPropertyOp18
 70
     1
102
RTVSPropertyOp19
 70
     1
102
RTVSPropertyOp20
 70
     1
102
RTVSPropertyOp21
 70
     1
102
RTVSPropertyOp22
 70
     1
102
RTVSPropertyOp23
 70
     1
102
RTVSPropertyOp24
 70
     1
102
RTVSPropertyOp25
 70
     1
102
RTVSPropertyOp26
 70
     1
102
RTVSPropertyOp27
 70
     1
102
RTVSPropertyOp28
 70
     1
102
RTVSPropertyOp29
 70
     1
102
RTVSPropertyOp30
 70
     1
102
RTVSPropertyOp31
 70
     1
102
RTVSPropertyOp32
 70
     1
102
RTVSPropertyOp33
 70
     1
102
RTVSPropertyOp34
 70
     1
102
RTVSPropertyOp35
 70
     1
102
RTVSPropertyOp36
 70
     1
102
RTVSPropertyOp37
 70
     1
102
RTVSPropertyOp38
 70
     1
102
RTVSPropertyOp39
 70
     1
102
RTVSPropertyOp40
 70
     1
102
RTVSPropertyOp41
 70
     1
102
RTVSPropertyOp42
 70
     1
102
RTVSPropertyOp43
 70
     1
102
RTVSPropertyOp44
 70
     1
102
RTVSPropertyOp45
 70
     1
102
RTVSPropertyOp46
 70
     1
102
RTVSPropertyOp47
 70
     1
102
RTVSPropertyOp48
 70
     1
102
RTVSPropertyOp49
 70
     1
102
RTVSPropertyOp50
 70
     1
102
RTVSPropertyOp51
 70
     0
102
RTVSPropertyOp52
 70
     0
102
RTVSPropertyOp53
 70
     1
102
RTVSPropertyOp54
 70
     1
102
RTVSPropertyOp55
 70
     1
102
RTVSPropertyOp56
 70
     1
102
RTVSPropertyOp57
 70
     1
102
RTVSPropertyOp58
 70
     1
102
RTVSPropertyOp59
 70
     1
102
RTVSPropertyOp60
 70
     1
102
RTVSPropertyOp61
 70
     1
102
RTVSPropertyOp62
 70
     1
  0
XRECORD
  5
2145
102
{ACAD_REACTORS
330
2144
102
}
330
2144
100
AcDbXrecord
280
     1
102
RTVSPost2010Prop28
280
     0
102
RTVSPost2010PropOp28
 70
     1
102
RTVSPost2010Prop29
280
     1
102
RTVSPost2010PropOp29
 70
     1
102
RTVSPost2010Prop30
280
     1
102
RTVSPost2010PropOp30
 70
     1
102
RTVSPost2010Prop31
280
     0
102
RTVSPost2010PropOp31
 70
     1
102
RTVSPost2010Prop32
280
     0
102
RTVSPost2010PropOp32
 70
     1
102
RTVSPost2010Prop33
280
     0
102
RTVSPost2010PropOp33
 70
     1
102
RTVSPost2010Prop34
280
     0
102
RTVSPost2010PropOp34
 70
     1
102
RTVSPost2010Prop35
280
     0
102
RTVSPost2010PropOp35
 70
     1
102
RTVSPost2010Prop36
280
     0
102
RTVSPost2010PropOp36
 70
     1
102
RTVSPost2010Prop37
 90
       50
102
RTVSPost2010PropOp37
 70
     1
102
RTVSPost2010Prop38
140
0.0
102
RTVSPost2010PropOp38
 70
     1
102
RTVSPost2010Prop39
140
1.0
102
RTVSPost2010PropOp39
 70
     1
102
RTVSPost2010Prop40
 90
        0
102
RTVSPost2010PropOp40
 70
     1
102
RTVSPost2010Prop41ColorIndex
 90
       18
102
RTVSPost2010Prop41ColorRGB
 90
        0
102
RTVSPost2010PropOp41
 70
     1
102
RTVSPost2010Prop42
 90
       50
102
RTVSPost2010PropOp42
 70
     1
102
RTVSPost2010Prop43
 90
        3
102
RTVSPost2010PropOp43
 70
     1
102
RTVSPost2010Prop44ColorIndex
 90
        5
102
RTVSPost2010Prop44ColorRGB
 90
      255
102
RTVSPost2010PropOp44
 70
     1
102
RTVSPost2010Prop45
280
     0
102
RTVSPost2010PropOp45
 70
     1
102
RTVSPost2010Prop46
 90
       50
102
RTVSPost2010PropOp46
 70
     1
102
RTVSPost2010Prop47
 90
       50
102
RTVSPost2010PropOp47
 70
     1
102
RTVSPost2010Prop48
 90
       50
102
RTVSPost2010PropOp48
 70
     1
102
RTVSPost2010Prop49
280
     0
102
RTVSPost2010PropOp49
 70
     1
102
RTVSPost2010Prop50
 90
       50
102
RTVSPost2010PropOp50
 70
     1
102
RTVSPost2010Prop51ColorIndex
 90
      256
102
RTVSPost2010Prop51ColorRGB
 90
-16777216
102
RTVSPost2010PropOp51
 70
     0
102
RTVSPost2010Prop52
140
1.0
102
RTVSPost2010PropOp52
 70
     0
102
RTVSPost2010Prop53
 90
        2
102
RTVSPost2010PropOp53
 70
     1
102
RTVSPost2010Prop54
  1
strokes_ogs.tif
102
RTVSPost2010PropOp54
 70
     1
102
RTVSPost2010Prop55
280
     0
102
RTVSPost2010PropOp55
 70
     1
102
RTVSPost2010Prop56
140
1.0
102
RTVSPost2010PropOp56
 70
     1
102
RTVSPost2010Prop57
140
1.0
102
RTVSPost2010PropOp57
 70
     1
102
RTVSPropertyOp0
 70
     1
102
RTVSPropertyOp1
 70
     1
102
RTVSPropertyOp2
 70
     1
102
RTVSPropertyOp3
 70
     1
102
RTVSPropertyOp4
 70
     1
102
RTVSPropertyOp5
 70
     1
102
RTVSPropertyOp6
 70
     1
102
RTVSPropertyOp7
 70
     1
102
RTVSPropertyOp8
 70
     1
102
RTVSPropertyOp9
 70
     1
102
RTVSPropertyOp10
 70
     1
102
RTVSPropertyOp11
 70
     1
102
RTVSPropertyOp12
 70
     1
102
RTVSPropertyOp13
 70
     1
102
RTVSPropertyOp14
 70
     1
102
RTVSPropertyOp15
 70
     1
102
RTVSPropertyOp16
 70
     1
102
RTVSPropertyOp17
 70
     1
102
RTVSPropertyOp18
 70
     1
102
RTVSPropertyOp19
 70
     1
102
RTVSPropertyOp20
 70
     1
102
RTVSPropertyOp21
 70
     1
102
RTVSPropertyOp22
 70
     1
102
RTVSPropertyOp23
 70
     1
102
RTVSPropertyOp24
 70
     1
102
RTVSPropertyOp25
 70
     1
102
RTVSPropertyOp26
 70
     1
102
RTVSPropertyOp27
 70
     1
102
RTVSPropertyOp28
 70
     1
102
RTVSPropertyOp29
 70
     1
102
RTVSPropertyOp30
 70
     1
102
RTVSPropertyOp31
 70
     1
102
RTVSPropertyOp32
 70
     1
102
RTVSPropertyOp33
 70
     1
102
RTVSPropertyOp34
 70
     1
102
RTVSPropertyOp35
 70
     1
102
RTVSPropertyOp36
 70
     1
102
RTVSPropertyOp37
 70
     1
102
RTVSPropertyOp38
 70
     1
102
RTVSPropertyOp39
 70
     1
102
RTVSPropertyOp40
 70
     1
102
RTVSPropertyOp41
 70
     1
102
RTVSPropertyOp42
 70
     1
102
RTVSPropertyOp43
 70
     1
102
RTVSPropertyOp44
 70
     1
102
RTVSPropertyOp45
 70
     1
102
RTVSPropertyOp46
 70
     1
102
RTVSPropertyOp47
 70
     1
102
RTVSPropertyOp48
 70
     1
102
RTVSPropertyOp49
 70
     1
102
RTVSPropertyOp50
 70
     1
102
RTVSPropertyOp51
 70
     0
102
RTVSPropertyOp52
 70
     0
102
RTVSPropertyOp53
 70
     1
102
RTVSPropertyOp54
 70
     1
102
RTVSPropertyOp55
 70
     1
102
RTVSPropertyOp56
 70
     1
102
RTVSPropertyOp57
 70
     1
102
RTVSPropertyOp58
 70
     1
102
RTVSPropertyOp59
 70
     1
102
RTVSPropertyOp60
 70
     1
102
RTVSPropertyOp61
 70
     1
102
RTVSPropertyOp62
 70
     1
  0
XRECORD
  5
2147
102
{ACAD_REACTORS
330
2146
102
}
330
2146
100
AcDbXrecord
280
     1
102
RTVSPost2010Prop28
280
     0
102
RTVSPost2010PropOp28
 70
     1
102
RTVSPost2010Prop29
280
     1
102
RTVSPost2010PropOp29
 70
     1
102
RTVSPost2010Prop30
280
     1
102
RTVSPost2010PropOp30
 70
     1
102
RTVSPost2010Prop31
280
     0
102
RTVSPost2010PropOp31
 70
     1
102
RTVSPost2010Prop32
280
     0
102
RTVSPost2010PropOp32
 70
     1
102
RTVSPost2010Prop33
280
     0
102
RTVSPost2010PropOp33
 70
     1
102
RTVSPost2010Prop34
280
     0
102
RTVSPost2010PropOp34
 70
     1
102
RTVSPost2010Prop35
280
     0
102
RTVSPost2010PropOp35
 70
     1
102
RTVSPost2010Prop36
280
     0
102
RTVSPost2010PropOp36
 70
     1
102
RTVSPost2010Prop37
 90
       50
102
RTVSPost2010PropOp37
 70
     1
102
RTVSPost2010Prop38
140
0.0
102
RTVSPost2010PropOp38
 70
     1
102
RTVSPost2010Prop39
140
1.0
102
RTVSPost2010PropOp39
 70
     1
102
RTVSPost2010Prop40
 90
        0
102
RTVSPost2010PropOp40
 70
     1
102
RTVSPost2010Prop41ColorIndex
 90
       18
102
RTVSPost2010Prop41ColorRGB
 90
        0
102
RTVSPost2010PropOp41
 70
     1
102
RTVSPost2010Prop42
 90
       50
102
RTVSPost2010PropOp42
 70
     1
102
RTVSPost2010Prop43
 90
        3
102
RTVSPost2010PropOp43
 70
     1
102
RTVSPost2010Prop44ColorIndex
 90
        5
102
RTVSPost2010Prop44ColorRGB
 90
      255
102
RTVSPost2010PropOp44
 70
     1
102
RTVSPost2010Prop45
280
     0
102
RTVSPost2010PropOp45
 70
     1
102
RTVSPost2010Prop46
 90
       50
102
RTVSPost2010PropOp46
 70
     1
102
RTVSPost2010Prop47
 90
       50
102
RTVSPost2010PropOp47
 70
     1
102
RTVSPost2010Prop48
 90
       50
102
RTVSPost2010PropOp48
 70
     1
102
RTVSPost2010Prop49
280
     0
102
RTVSPost2010PropOp49
 70
     1
102
RTVSPost2010Prop50
 90
       50
102
RTVSPost2010PropOp50
 70
     1
102
RTVSPost2010Prop51ColorIndex
 90
      256
102
RTVSPost2010Prop51ColorRGB
 90
-16777216
102
RTVSPost2010PropOp51
 70
     0
102
RTVSPost2010Prop52
140
1.0
102
RTVSPost2010PropOp52
 70
     0
102
RTVSPost2010Prop53
 90
        2
102
RTVSPost2010PropOp53
 70
     1
102
RTVSPost2010Prop54
  1
strokes_ogs.tif
102
RTVSPost2010PropOp54
 70
     1
102
RTVSPost2010Prop55
280
     0
102
RTVSPost2010PropOp55
 70
     1
102
RTVSPost2010Prop56
140
1.0
102
RTVSPost2010PropOp56
 70
     1
102
RTVSPost2010Prop57
140
1.0
102
RTVSPost2010PropOp57
 70
     1
102
RTVSPropertyOp0
 70
     1
102
RTVSPropertyOp1
 70
     1
102
RTVSPropertyOp2
 70
     1
102
RTVSPropertyOp3
 70
     1
102
RTVSPropertyOp4
 70
     1
102
RTVSPropertyOp5
 70
     1
102
RTVSPropertyOp6
 70
     1
102
RTVSPropertyOp7
 70
     1
102
RTVSPropertyOp8
 70
     1
102
RTVSPropertyOp9
 70
     1
102
RTVSPropertyOp10
 70
     1
102
RTVSPropertyOp11
 70
     1
102
RTVSPropertyOp12
 70
     1
102
RTVSPropertyOp13
 70
     1
102
RTVSPropertyOp14
 70
     1
102
RTVSPropertyOp15
 70
     1
102
RTVSPropertyOp16
 70
     1
102
RTVSPropertyOp17
 70
     1
102
RTVSPropertyOp18
 70
     1
102
RTVSPropertyOp19
 70
     1
102
RTVSPropertyOp20
 70
     1
102
RTVSPropertyOp21
 70
     1
102
RTVSPropertyOp22
 70
     1
102
RTVSPropertyOp23
 70
     1
102
RTVSPropertyOp24
 70
     1
102
RTVSPropertyOp25
 70
     1
102
RTVSPropertyOp26
 70
     1
102
RTVSPropertyOp27
 70
     1
102
RTVSPropertyOp28
 70
     1
102
RTVSPropertyOp29
 70
     1
102
RTVSPropertyOp30
 70
     1
102
RTVSPropertyOp31
 70
     1
102
RTVSPropertyOp32
 70
     1
102
RTVSPropertyOp33
 70
     1
102
RTVSPropertyOp34
 70
     1
102
RTVSPropertyOp35
 70
     1
102
RTVSPropertyOp36
 70
     1
102
RTVSPropertyOp37
 70
     1
102
RTVSPropertyOp38
 70
     1
102
RTVSPropertyOp39
 70
     1
102
RTVSPropertyOp40
 70
     1
102
RTVSPropertyOp41
 70
     1
102
RTVSPropertyOp42
 70
     1
102
RTVSPropertyOp43
 70
     1
102
RTVSPropertyOp44
 70
     1
102
RTVSPropertyOp45
 70
     1
102
RTVSPropertyOp46
 70
     1
102
RTVSPropertyOp47
 70
     1
102
RTVSPropertyOp48
 70
     1
102
RTVSPropertyOp49
 70
     1
102
RTVSPropertyOp50
 70
     1
102
RTVSPropertyOp51
 70
     0
102
RTVSPropertyOp52
 70
     0
102
RTVSPropertyOp53
 70
     1
102
RTVSPropertyOp54
 70
     1
102
RTVSPropertyOp55
 70
     1
102
RTVSPropertyOp56
 70
     1
102
RTVSPropertyOp57
 70
     1
102
RTVSPropertyOp58
 70
     1
102
RTVSPropertyOp59
 70
     1
102
RTVSPropertyOp60
 70
     1
102
RTVSPropertyOp61
 70
     1
102
RTVSPropertyOp62
 70
     1
  0
XRECORD
  5
2149
102
{ACAD_REACTORS
330
2148
102
}
330
2148
100
AcDbXrecord
280
     1
102
RTVSPost2010Prop28
280
     0
102
RTVSPost2010PropOp28
 70
     1
102
RTVSPost2010Prop29
280
     1
102
RTVSPost2010PropOp29
 70
     1
102
RTVSPost2010Prop30
280
     1
102
RTVSPost2010PropOp30
 70
     1
102
RTVSPost2010Prop31
280
     0
102
RTVSPost2010PropOp31
 70
     1
102
RTVSPost2010Prop32
280
     0
102
RTVSPost2010PropOp32
 70
     1
102
RTVSPost2010Prop33
280
     0
102
RTVSPost2010PropOp33
 70
     1
102
RTVSPost2010Prop34
280
     0
102
RTVSPost2010PropOp34
 70
     1
102
RTVSPost2010Prop35
280
     0
102
RTVSPost2010PropOp35
 70
     1
102
RTVSPost2010Prop36
280
     0
102
RTVSPost2010PropOp36
 70
     1
102
RTVSPost2010Prop37
 90
       50
102
RTVSPost2010PropOp37
 70
     1
102
RTVSPost2010Prop38
140
0.0
102
RTVSPost2010PropOp38
 70
     1
102
RTVSPost2010Prop39
140
1.0
102
RTVSPost2010PropOp39
 70
     1
102
RTVSPost2010Prop40
 90
        0
102
RTVSPost2010PropOp40
 70
     1
102
RTVSPost2010Prop41ColorIndex
 90
       18
102
RTVSPost2010Prop41ColorRGB
 90
        0
102
RTVSPost2010PropOp41
 70
     1
102
RTVSPost2010Prop42
 90
       50
102
RTVSPost2010PropOp42
 70
     1
102
RTVSPost2010Prop43
 90
        3
102
RTVSPost2010PropOp43
 70
     1
102
RTVSPost2010Prop44ColorIndex
 90
        5
102
RTVSPost2010Prop44ColorRGB
 90
      255
102
RTVSPost2010PropOp44
 70
     1
102
RTVSPost2010Prop45
280
     0
102
RTVSPost2010PropOp45
 70
     1
102
RTVSPost2010Prop46
 90
       50
102
RTVSPost2010PropOp46
 70
     1
102
RTVSPost2010Prop47
 90
       50
102
RTVSPost2010PropOp47
 70
     1
102
RTVSPost2010Prop48
 90
       50
102
RTVSPost2010PropOp48
 70
     1
102
RTVSPost2010Prop49
280
     0
102
RTVSPost2010PropOp49
 70
     1
102
RTVSPost2010Prop50
 90
       50
102
RTVSPost2010PropOp50
 70
     1
102
RTVSPost2010Prop51ColorIndex
 90
      256
102
RTVSPost2010Prop51ColorRGB
 90
-16777216
102
RTVSPost2010PropOp51
 70
     0
102
RTVSPost2010Prop52
140
1.0
102
RTVSPost2010PropOp52
 70
     0
102
RTVSPost2010Prop53
 90
        2
102
RTVSPost2010PropOp53
 70
     1
102
RTVSPost2010Prop54
  1
strokes_ogs.tif
102
RTVSPost2010PropOp54
 70
     1
102
RTVSPost2010Prop55
280
     0
102
RTVSPost2010PropOp55
 70
     1
102
RTVSPost2010Prop56
140
1.0
102
RTVSPost2010PropOp56
 70
     1
102
RTVSPost2010Prop57
140
1.0
102
RTVSPost2010PropOp57
 70
     1
102
RTVSPropertyOp0
 70
     1
102
RTVSPropertyOp1
 70
     1
102
RTVSPropertyOp2
 70
     1
102
RTVSPropertyOp3
 70
     1
102
RTVSPropertyOp4
 70
     1
102
RTVSPropertyOp5
 70
     1
102
RTVSPropertyOp6
 70
     1
102
RTVSPropertyOp7
 70
     1
102
RTVSPropertyOp8
 70
     1
102
RTVSPropertyOp9
 70
     1
102
RTVSPropertyOp10
 70
     1
102
RTVSPropertyOp11
 70
     1
102
RTVSPropertyOp12
 70
     1
102
RTVSPropertyOp13
 70
     1
102
RTVSPropertyOp14
 70
     1
102
RTVSPropertyOp15
 70
     1
102
RTVSPropertyOp16
 70
     1
102
RTVSPropertyOp17
 70
     1
102
RTVSPropertyOp18
 70
     1
102
RTVSPropertyOp19
 70
     1
102
RTVSPropertyOp20
 70
     1
102
RTVSPropertyOp21
 70
     1
102
RTVSPropertyOp22
 70
     1
102
RTVSPropertyOp23
 70
     1
102
RTVSPropertyOp24
 70
     1
102
RTVSPropertyOp25
 70
     1
102
RTVSPropertyOp26
 70
     1
102
RTVSPropertyOp27
 70
     1
102
RTVSPropertyOp28
 70
     1
102
RTVSPropertyOp29
 70
     1
102
RTVSPropertyOp30
 70
     1
102
RTVSPropertyOp31
 70
     1
102
RTVSPropertyOp32
 70
     1
102
RTVSPropertyOp33
 70
     1
102
RTVSPropertyOp34
 70
     1
102
RTVSPropertyOp35
 70
     1
102
RTVSPropertyOp36
 70
     1
102
RTVSPropertyOp37
 70
     1
102
RTVSPropertyOp38
 70
     1
102
RTVSPropertyOp39
 70
     1
102
RTVSPropertyOp40
 70
     1
102
RTVSPropertyOp41
 70
     1
102
RTVSPropertyOp42
 70
     1
102
RTVSPropertyOp43
 70
     1
102
RTVSPropertyOp44
 70
     1
102
RTVSPropertyOp45
 70
     1
102
RTVSPropertyOp46
 70
     1
102
RTVSPropertyOp47
 70
     1
102
RTVSPropertyOp48
 70
     1
102
RTVSPropertyOp49
 70
     1
102
RTVSPropertyOp50
 70
     1
102
RTVSPropertyOp51
 70
     0
102
RTVSPropertyOp52
 70
     0
102
RTVSPropertyOp53
 70
     1
102
RTVSPropertyOp54
 70
     1
102
RTVSPropertyOp55
 70
     1
102
RTVSPropertyOp56
 70
     1
102
RTVSPropertyOp57
 70
     1
102
RTVSPropertyOp58
 70
     1
102
RTVSPropertyOp59
 70
     1
102
RTVSPropertyOp60
 70
     1
102
RTVSPropertyOp61
 70
     1
102
RTVSPropertyOp62
 70
     1
  0
XRECORD
  5
2151
102
{ACAD_REACTORS
330
2150
102
}
330
2150
100
AcDbXrecord
280
     1
102
RTVSPost2010Prop28
280
     0
102
RTVSPost2010PropOp28
 70
     1
102
RTVSPost2010Prop29
280
     1
102
RTVSPost2010PropOp29
 70
     1
102
RTVSPost2010Prop30
280
     1
102
RTVSPost2010PropOp30
 70
     1
102
RTVSPost2010Prop31
280
     0
102
RTVSPost2010PropOp31
 70
     1
102
RTVSPost2010Prop32
280
     0
102
RTVSPost2010PropOp32
 70
     1
102
RTVSPost2010Prop33
280
     0
102
RTVSPost2010PropOp33
 70
     1
102
RTVSPost2010Prop34
280
     0
102
RTVSPost2010PropOp34
 70
     1
102
RTVSPost2010Prop35
280
     0
102
RTVSPost2010PropOp35
 70
     1
102
RTVSPost2010Prop36
280
     0
102
RTVSPost2010PropOp36
 70
     1
102
RTVSPost2010Prop37
 90
       50
102
RTVSPost2010PropOp37
 70
     1
102
RTVSPost2010Prop38
140
0.0
102
RTVSPost2010PropOp38
 70
     1
102
RTVSPost2010Prop39
140
1.0
102
RTVSPost2010PropOp39
 70
     1
102
RTVSPost2010Prop40
 90
        0
102
RTVSPost2010PropOp40
 70
     1
102
RTVSPost2010Prop41ColorIndex
 90
       18
102
RTVSPost2010Prop41ColorRGB
 90
        0
102
RTVSPost2010PropOp41
 70
     1
102
RTVSPost2010Prop42
 90
       50
102
RTVSPost2010PropOp42
 70
     1
102
RTVSPost2010Prop43
 90
        3
102
RTVSPost2010PropOp43
 70
     1
102
RTVSPost2010Prop44ColorIndex
 90
        5
102
RTVSPost2010Prop44ColorRGB
 90
      255
102
RTVSPost2010PropOp44
 70
     1
102
RTVSPost2010Prop45
280
     0
102
RTVSPost2010PropOp45
 70
     1
102
RTVSPost2010Prop46
 90
       50
102
RTVSPost2010PropOp46
 70
     1
102
RTVSPost2010Prop47
 90
       50
102
RTVSPost2010PropOp47
 70
     1
102
RTVSPost2010Prop48
 90
       50
102
RTVSPost2010PropOp48
 70
     1
102
RTVSPost2010Prop49
280
     0
102
RTVSPost2010PropOp49
 70
     1
102
RTVSPost2010Prop50
 90
       50
102
RTVSPost2010PropOp50
 70
     1
102
RTVSPost2010Prop51ColorIndex
 90
      256
102
RTVSPost2010Prop51ColorRGB
 90
-16777216
102
RTVSPost2010PropOp51
 70
     0
102
RTVSPost2010Prop52
140
1.0
102
RTVSPost2010PropOp52
 70
     0
102
RTVSPost2010Prop53
 90
        2
102
RTVSPost2010PropOp53
 70
     1
102
RTVSPost2010Prop54
  1
strokes_ogs.tif
102
RTVSPost2010PropOp54
 70
     1
102
RTVSPost2010Prop55
280
     0
102
RTVSPost2010PropOp55
 70
     1
102
RTVSPost2010Prop56
140
1.0
102
RTVSPost2010PropOp56
 70
     1
102
RTVSPost2010Prop57
140
1.0
102
RTVSPost2010PropOp57
 70
     1
102
RTVSPropertyOp0
 70
     1
102
RTVSPropertyOp1
 70
     1
102
RTVSPropertyOp2
 70
     1
102
RTVSPropertyOp3
 70
     1
102
RTVSPropertyOp4
 70
     1
102
RTVSPropertyOp5
 70
     1
102
RTVSPropertyOp6
 70
     1
102
RTVSPropertyOp7
 70
     1
102
RTVSPropertyOp8
 70
     1
102
RTVSPropertyOp9
 70
     1
102
RTVSPropertyOp10
 70
     1
102
RTVSPropertyOp11
 70
     1
102
RTVSPropertyOp12
 70
     1
102
RTVSPropertyOp13
 70
     1
102
RTVSPropertyOp14
 70
     1
102
RTVSPropertyOp15
 70
     1
102
RTVSPropertyOp16
 70
     1
102
RTVSPropertyOp17
 70
     1
102
RTVSPropertyOp18
 70
     1
102
RTVSPropertyOp19
 70
     1
102
RTVSPropertyOp20
 70
     1
102
RTVSPropertyOp21
 70
     1
102
RTVSPropertyOp22
 70
     1
102
RTVSPropertyOp23
 70
     1
102
RTVSPropertyOp24
 70
     1
102
RTVSPropertyOp25
 70
     1
102
RTVSPropertyOp26
 70
     1
102
RTVSPropertyOp27
 70
     1
102
RTVSPropertyOp28
 70
     1
102
RTVSPropertyOp29
 70
     1
102
RTVSPropertyOp30
 70
     1
102
RTVSPropertyOp31
 70
     1
102
RTVSPropertyOp32
 70
     1
102
RTVSPropertyOp33
 70
     1
102
RTVSPropertyOp34
 70
     1
102
RTVSPropertyOp35
 70
     1
102
RTVSPropertyOp36
 70
     1
102
RTVSPropertyOp37
 70
     1
102
RTVSPropertyOp38
 70
     1
102
RTVSPropertyOp39
 70
     1
102
RTVSPropertyOp40
 70
     1
102
RTVSPropertyOp41
 70
     1
102
RTVSPropertyOp42
 70
     1
102
RTVSPropertyOp43
 70
     1
102
RTVSPropertyOp44
 70
     1
102
RTVSPropertyOp45
 70
     1
102
RTVSPropertyOp46
 70
     1
102
RTVSPropertyOp47
 70
     1
102
RTVSPropertyOp48
 70
     1
102
RTVSPropertyOp49
 70
     1
102
RTVSPropertyOp50
 70
     1
102
RTVSPropertyOp51
 70
     0
102
RTVSPropertyOp52
 70
     0
102
RTVSPropertyOp53
 70
     1
102
RTVSPropertyOp54
 70
     1
102
RTVSPropertyOp55
 70
     1
102
RTVSPropertyOp56
 70
     1
102
RTVSPropertyOp57
 70
     1
102
RTVSPropertyOp58
 70
     1
102
RTVSPropertyOp59
 70
     1
102
RTVSPropertyOp60
 70
     1
102
RTVSPropertyOp61
 70
     1
102
RTVSPropertyOp62
 70
     1
  0
XRECORD
  5
2165
102
{ACAD_REACTORS
330
2164
102
}
330
2164
100
AcDbXrecord
280
     1
102
RTVSPost2010Prop28
280
     0
102
RTVSPost2010PropOp28
 70
     1
102
RTVSPost2010Prop29
280
     1
102
RTVSPost2010PropOp29
 70
     1
102
RTVSPost2010Prop30
280
     1
102
RTVSPost2010PropOp30
 70
     1
102
RTVSPost2010Prop31
280
     0
102
RTVSPost2010PropOp31
 70
     1
102
RTVSPost2010Prop32
280
     0
102
RTVSPost2010PropOp32
 70
     1
102
RTVSPost2010Prop33
280
     0
102
RTVSPost2010PropOp33
 70
     1
102
RTVSPost2010Prop34
280
     0
102
RTVSPost2010PropOp34
 70
     1
102
RTVSPost2010Prop35
280
     0
102
RTVSPost2010PropOp35
 70
     1
102
RTVSPost2010Prop36
280
     0
102
RTVSPost2010PropOp36
 70
     1
102
RTVSPost2010Prop37
 90
       50
102
RTVSPost2010PropOp37
 70
     1
102
RTVSPost2010Prop38
140
0.0
102
RTVSPost2010PropOp38
 70
     1
102
RTVSPost2010Prop39
140
1.0
102
RTVSPost2010PropOp39
 70
     1
102
RTVSPost2010Prop40
 90
        0
102
RTVSPost2010PropOp40
 70
     1
102
RTVSPost2010Prop41ColorIndex
 90
       18
102
RTVSPost2010Prop41ColorRGB
 90
        0
102
RTVSPost2010PropOp41
 70
     1
102
RTVSPost2010Prop42
 90
       50
102
RTVSPost2010PropOp42
 70
     1
102
RTVSPost2010Prop43
 90
        3
102
RTVSPost2010PropOp43
 70
     1
102
RTVSPost2010Prop44ColorIndex
 90
        5
102
RTVSPost2010Prop44ColorRGB
 90
      255
102
RTVSPost2010PropOp44
 70
     1
102
RTVSPost2010Prop45
280
     0
102
RTVSPost2010PropOp45
 70
     1
102
RTVSPost2010Prop46
 90
       50
102
RTVSPost2010PropOp46
 70
     1
102
RTVSPost2010Prop47
 90
       50
102
RTVSPost2010PropOp47
 70
     1
102
RTVSPost2010Prop48
 90
       50
102
RTVSPost2010PropOp48
 70
     1
102
RTVSPost2010Prop49
280
     0
102
RTVSPost2010PropOp49
 70
     1
102
RTVSPost2010Prop50
 90
       50
102
RTVSPost2010PropOp50
 70
     1
102
RTVSPost2010Prop51ColorIndex
 90
      256
102
RTVSPost2010Prop51ColorRGB
 90
-16777216
102
RTVSPost2010PropOp51
 70
     0
102
RTVSPost2010Prop52
140
1.0
102
RTVSPost2010PropOp52
 70
     0
102
RTVSPost2010Prop53
 90
        2
102
RTVSPost2010PropOp53
 70
     1
102
RTVSPost2010Prop54
  1
strokes_ogs.tif
102
RTVSPost2010PropOp54
 70
     1
102
RTVSPost2010Prop55
280
     0
102
RTVSPost2010PropOp55
 70
     1
102
RTVSPost2010Prop56
140
1.0
102
RTVSPost2010PropOp56
 70
     1
102
RTVSPost2010Prop57
140
1.0
102
RTVSPost2010PropOp57
 70
     1
102
RTVSPropertyOp0
 70
     0
102
RTVSPropertyOp1
 70
     0
102
RTVSPropertyOp2
 70
     0
102
RTVSPropertyOp3
 70
     0
102
RTVSPropertyOp4
 70
     0
102
RTVSPropertyOp5
 70
     0
102
RTVSPropertyOp6
 70
     0
102
RTVSPropertyOp7
 70
     0
102
RTVSPropertyOp8
 70
     0
102
RTVSPropertyOp9
 70
     0
102
RTVSPropertyOp10
 70
     0
102
RTVSPropertyOp11
 70
     0
102
RTVSPropertyOp12
 70
     0
102
RTVSPropertyOp13
 70
     0
102
RTVSPropertyOp14
 70
     2
102
RTVSPropertyOp15
 70
     0
102
RTVSPropertyOp16
 70
     0
102
RTVSPropertyOp17
 70
     0
102
RTVSPropertyOp18
 70
     0
102
RTVSPropertyOp19
 70
     0
102
RTVSPropertyOp20
 70
     0
102
RTVSPropertyOp21
 70
     0
102
RTVSPropertyOp22
 70
     0
102
RTVSPropertyOp23
 70
     0
102
RTVSPropertyOp24
 70
     0
102
RTVSPropertyOp25
 70
     0
102
RTVSPropertyOp26
 70
     0
102
RTVSPropertyOp27
 70
     0
102
RTVSPropertyOp28
 70
     1
102
RTVSPropertyOp29
 70
     1
102
RTVSPropertyOp30
 70
     1
102
RTVSPropertyOp31
 70
     1
102
RTVSPropertyOp32
 70
     1
102
RTVSPropertyOp33
 70
     1
102
RTVSPropertyOp34
 70
     1
102
RTVSPropertyOp35
 70
     1
102
RTVSPropertyOp36
 70
     1
102
RTVSPropertyOp37
 70
     1
102
RTVSPropertyOp38
 70
     1
102
RTVSPropertyOp39
 70
     1
102
RTVSPropertyOp40
 70
     1
102
RTVSPropertyOp41
 70
     1
102
RTVSPropertyOp42
 70
     1
102
RTVSPropertyOp43
 70
     1
102
RTVSPropertyOp44
 70
     1
102
RTVSPropertyOp45
 70
     1
102
RTVSPropertyOp46
 70
     1
102
RTVSPropertyOp47
 70
     1
102
RTVSPropertyOp48
 70
     1
102
RTVSPropertyOp49
 70
     1
102
RTVSPropertyOp50
 70
     1
102
RTVSPropertyOp51
 70
     0
102
RTVSPropertyOp52
 70
     0
102
RTVSPropertyOp53
 70
     1
102
RTVSPropertyOp54
 70
     1
102
RTVSPropertyOp55
 70
     1
102
RTVSPropertyOp56
 70
     1
102
RTVSPropertyOp57
 70
     1
102
RTVSPropertyOp58
 70
     1
102
RTVSPropertyOp59
 70
     1
102
RTVSPropertyOp60
 70
     1
102
RTVSPropertyOp61
 70
     1
102
RTVSPropertyOp62
 70
     1
  0
XRECORD
  5
215D
102
{ACAD_REACTORS
330
215C
102
}
330
215C
100
AcDbXrecord
280
     1
102
RTVSPost2010Prop28
280
     0
102
RTVSPost2010PropOp28
 70
     1
102
RTVSPost2010Prop29
280
     1
102
RTVSPost2010PropOp29
 70
     1
102
RTVSPost2010Prop30
280
     1
102
RTVSPost2010PropOp30
 70
     1
102
RTVSPost2010Prop31
280
     0
102
RTVSPost2010PropOp31
 70
     1
102
RTVSPost2010Prop32
280
     0
102
RTVSPost2010PropOp32
 70
     1
102
RTVSPost2010Prop33
280
     0
102
RTVSPost2010PropOp33
 70
     1
102
RTVSPost2010Prop34
280
     0
102
RTVSPost2010PropOp34
 70
     1
102
RTVSPost2010Prop35
280
     0
102
RTVSPost2010PropOp35
 70
     1
102
RTVSPost2010Prop36
280
     0
102
RTVSPost2010PropOp36
 70
     1
102
RTVSPost2010Prop37
 90
       50
102
RTVSPost2010PropOp37
 70
     1
102
RTVSPost2010Prop38
140
0.0
102
RTVSPost2010PropOp38
 70
     1
102
RTVSPost2010Prop39
140
1.0
102
RTVSPost2010PropOp39
 70
     1
102
RTVSPost2010Prop40
 90
        0
102
RTVSPost2010PropOp40
 70
     1
102
RTVSPost2010Prop41ColorIndex
 90
       18
102
RTVSPost2010Prop41ColorRGB
 90
        0
102
RTVSPost2010PropOp41
 70
     1
102
RTVSPost2010Prop42
 90
       50
102
RTVSPost2010PropOp42
 70
     1
102
RTVSPost2010Prop43
 90
        3
102
RTVSPost2010PropOp43
 70
     1
102
RTVSPost2010Prop44ColorIndex
 90
        5
102
RTVSPost2010Prop44ColorRGB
 90
      255
102
RTVSPost2010PropOp44
 70
     1
102
RTVSPost2010Prop45
280
     0
102
RTVSPost2010PropOp45
 70
     1
102
RTVSPost2010Prop46
 90
       50
102
RTVSPost2010PropOp46
 70
     1
102
RTVSPost2010Prop47
 90
       50
102
RTVSPost2010PropOp47
 70
     1
102
RTVSPost2010Prop48
 90
       50
102
RTVSPost2010PropOp48
 70
     1
102
RTVSPost2010Prop49
280
     0
102
RTVSPost2010PropOp49
 70
     1
102
RTVSPost2010Prop50
 90
       50
102
RTVSPost2010PropOp50
 70
     1
102
RTVSPost2010Prop51ColorIndex
 90
      256
102
RTVSPost2010Prop51ColorRGB
 90
-16777216
102
RTVSPost2010PropOp51
 70
     0
102
RTVSPost2010Prop52
140
1.0
102
RTVSPost2010PropOp52
 70
     0
102
RTVSPost2010Prop53
 90
        2
102
RTVSPost2010PropOp53
 70
     1
102
RTVSPost2010Prop54
  1
strokes_ogs.tif
102
RTVSPost2010PropOp54
 70
     1
102
RTVSPost2010Prop55
280
     0
102
RTVSPost2010PropOp55
 70
     1
102
RTVSPost2010Prop56
140
1.0
102
RTVSPost2010PropOp56
 70
     1
102
RTVSPost2010Prop57
140
1.0
102
RTVSPost2010PropOp57
 70
     1
102
RTVSPropertyOp0
 70
     1
102
RTVSPropertyOp1
 70
     1
102
RTVSPropertyOp2
 70
     1
102
RTVSPropertyOp3
 70
     1
102
RTVSPropertyOp4
 70
     1
102
RTVSPropertyOp5
 70
     1
102
RTVSPropertyOp6
 70
     1
102
RTVSPropertyOp7
 70
     1
102
RTVSPropertyOp8
 70
     1
102
RTVSPropertyOp9
 70
     1
102
RTVSPropertyOp10
 70
     1
102
RTVSPropertyOp11
 70
     1
102
RTVSPropertyOp12
 70
     1
102
RTVSPropertyOp13
 70
     1
102
RTVSPropertyOp14
 70
     1
102
RTVSPropertyOp15
 70
     1
102
RTVSPropertyOp16
 70
     1
102
RTVSPropertyOp17
 70
     1
102
RTVSPropertyOp18
 70
     1
102
RTVSPropertyOp19
 70
     1
102
RTVSPropertyOp20
 70
     1
102
RTVSPropertyOp21
 70
     1
102
RTVSPropertyOp22
 70
     1
102
RTVSPropertyOp23
 70
     1
102
RTVSPropertyOp24
 70
     1
102
RTVSPropertyOp25
 70
     1
102
RTVSPropertyOp26
 70
     1
102
RTVSPropertyOp27
 70
     1
102
RTVSPropertyOp28
 70
     1
102
RTVSPropertyOp29
 70
     1
102
RTVSPropertyOp30
 70
     1
102
RTVSPropertyOp31
 70
     1
102
RTVSPropertyOp32
 70
     1
102
RTVSPropertyOp33
 70
     1
102
RTVSPropertyOp34
 70
     1
102
RTVSPropertyOp35
 70
     1
102
RTVSPropertyOp36
 70
     1
102
RTVSPropertyOp37
 70
     1
102
RTVSPropertyOp38
 70
     1
102
RTVSPropertyOp39
 70
     1
102
RTVSPropertyOp40
 70
     1
102
RTVSPropertyOp41
 70
     1
102
RTVSPropertyOp42
 70
     1
102
RTVSPropertyOp43
 70
     1
102
RTVSPropertyOp44
 70
     1
102
RTVSPropertyOp45
 70
     1
102
RTVSPropertyOp46
 70
     1
102
RTVSPropertyOp47
 70
     1
102
RTVSPropertyOp48
 70
     1
102
RTVSPropertyOp49
 70
     1
102
RTVSPropertyOp50
 70
     1
102
RTVSPropertyOp51
 70
     0
102
RTVSPropertyOp52
 70
     0
102
RTVSPropertyOp53
 70
     1
102
RTVSPropertyOp54
 70
     1
102
RTVSPropertyOp55
 70
     1
102
RTVSPropertyOp56
 70
     1
102
RTVSPropertyOp57
 70
     1
102
RTVSPropertyOp58
 70
     1
102
RTVSPropertyOp59
 70
     1
102
RTVSPropertyOp60
 70
     1
102
RTVSPropertyOp61
 70
     1
102
RTVSPropertyOp62
 70
     1
  0
XRECORD
  5
2167
102
{ACAD_REACTORS
330
2166
102
}
330
2166
100
AcDbXrecord
280
     1
102
RTVSPost2010Prop28
280
     0
102
RTVSPost2010PropOp28
 70
     1
102
RTVSPost2010Prop29
280
     1
102
RTVSPost2010PropOp29
 70
     1
102
RTVSPost2010Prop30
280
     1
102
RTVSPost2010PropOp30
 70
     1
102
RTVSPost2010Prop31
280
     0
102
RTVSPost2010PropOp31
 70
     1
102
RTVSPost2010Prop32
280
     0
102
RTVSPost2010PropOp32
 70
     1
102
RTVSPost2010Prop33
280
     0
102
RTVSPost2010PropOp33
 70
     1
102
RTVSPost2010Prop34
280
     0
102
RTVSPost2010PropOp34
 70
     1
102
RTVSPost2010Prop35
280
     0
102
RTVSPost2010PropOp35
 70
     1
102
RTVSPost2010Prop36
280
     0
102
RTVSPost2010PropOp36
 70
     1
102
RTVSPost2010Prop37
 90
       50
102
RTVSPost2010PropOp37
 70
     1
102
RTVSPost2010Prop38
140
0.0
102
RTVSPost2010PropOp38
 70
     1
102
RTVSPost2010Prop39
140
1.0
102
RTVSPost2010PropOp39
 70
     1
102
RTVSPost2010Prop40
 90
        0
102
RTVSPost2010PropOp40
 70
     1
102
RTVSPost2010Prop41ColorIndex
 90
       18
102
RTVSPost2010Prop41ColorRGB
 90
        0
102
RTVSPost2010PropOp41
 70
     1
102
RTVSPost2010Prop42
 90
       50
102
RTVSPost2010PropOp42
 70
     1
102
RTVSPost2010Prop43
 90
        3
102
RTVSPost2010PropOp43
 70
     1
102
RTVSPost2010Prop44ColorIndex
 90
        5
102
RTVSPost2010Prop44ColorRGB
 90
      255
102
RTVSPost2010PropOp44
 70
     1
102
RTVSPost2010Prop45
280
     0
102
RTVSPost2010PropOp45
 70
     1
102
RTVSPost2010Prop46
 90
       50
102
RTVSPost2010PropOp46
 70
     1
102
RTVSPost2010Prop47
 90
       50
102
RTVSPost2010PropOp47
 70
     1
102
RTVSPost2010Prop48
 90
       50
102
RTVSPost2010PropOp48
 70
     1
102
RTVSPost2010Prop49
280
     0
102
RTVSPost2010PropOp49
 70
     1
102
RTVSPost2010Prop50
 90
       50
102
RTVSPost2010PropOp50
 70
     1
102
RTVSPost2010Prop51ColorIndex
 90
      256
102
RTVSPost2010Prop51ColorRGB
 90
-16777216
102
RTVSPost2010PropOp51
 70
     0
102
RTVSPost2010Prop52
140
1.0
102
RTVSPost2010PropOp52
 70
     0
102
RTVSPost2010Prop53
 90
        2
102
RTVSPost2010PropOp53
 70
     1
102
RTVSPost2010Prop54
  1
strokes_ogs.tif
102
RTVSPost2010PropOp54
 70
     1
102
RTVSPost2010Prop55
280
     0
102
RTVSPost2010PropOp55
 70
     1
102
RTVSPost2010Prop56
140
1.0
102
RTVSPost2010PropOp56
 70
     1
102
RTVSPost2010Prop57
140
1.0
102
RTVSPost2010PropOp57
 70
     1
102
RTVSPropertyOp0
 70
     0
102
RTVSPropertyOp1
 70
     0
102
RTVSPropertyOp2
 70
     0
102
RTVSPropertyOp3
 70
     0
102
RTVSPropertyOp4
 70
     0
102
RTVSPropertyOp5
 70
     0
102
RTVSPropertyOp6
 70
     0
102
RTVSPropertyOp7
 70
     0
102
RTVSPropertyOp8
 70
     0
102
RTVSPropertyOp9
 70
     0
102
RTVSPropertyOp10
 70
     0
102
RTVSPropertyOp11
 70
     0
102
RTVSPropertyOp12
 70
     0
102
RTVSPropertyOp13
 70
     0
102
RTVSPropertyOp14
 70
     2
102
RTVSPropertyOp15
 70
     0
102
RTVSPropertyOp16
 70
     0
102
RTVSPropertyOp17
 70
     0
102
RTVSPropertyOp18
 70
     0
102
RTVSPropertyOp19
 70
     0
102
RTVSPropertyOp20
 70
     0
102
RTVSPropertyOp21
 70
     0
102
RTVSPropertyOp22
 70
     0
102
RTVSPropertyOp23
 70
     0
102
RTVSPropertyOp24
 70
     0
102
RTVSPropertyOp25
 70
     0
102
RTVSPropertyOp26
 70
     0
102
RTVSPropertyOp27
 70
     0
102
RTVSPropertyOp28
 70
     1
102
RTVSPropertyOp29
 70
     1
102
RTVSPropertyOp30
 70
     1
102
RTVSPropertyOp31
 70
     1
102
RTVSPropertyOp32
 70
     1
102
RTVSPropertyOp33
 70
     1
102
RTVSPropertyOp34
 70
     1
102
RTVSPropertyOp35
 70
     1
102
RTVSPropertyOp36
 70
     1
102
RTVSPropertyOp37
 70
     1
102
RTVSPropertyOp38
 70
     1
102
RTVSPropertyOp39
 70
     1
102
RTVSPropertyOp40
 70
     1
102
RTVSPropertyOp41
 70
     1
102
RTVSPropertyOp42
 70
     1
102
RTVSPropertyOp43
 70
     1
102
RTVSPropertyOp44
 70
     1
102
RTVSPropertyOp45
 70
     1
102
RTVSPropertyOp46
 70
     1
102
RTVSPropertyOp47
 70
     1
102
RTVSPropertyOp48
 70
     1
102
RTVSPropertyOp49
 70
     1
102
RTVSPropertyOp50
 70
     1
102
RTVSPropertyOp51
 70
     0
102
RTVSPropertyOp52
 70
     0
102
RTVSPropertyOp53
 70
     1
102
RTVSPropertyOp54
 70
     1
102
RTVSPropertyOp55
 70
     1
102
RTVSPropertyOp56
 70
     1
102
RTVSPropertyOp57
 70
     1
102
RTVSPropertyOp58
 70
     1
102
RTVSPropertyOp59
 70
     1
102
RTVSPropertyOp60
 70
     1
102
RTVSPropertyOp61
 70
     1
102
RTVSPropertyOp62
 70
     1
  0
XRECORD
  5
2155
102
{ACAD_REACTORS
330
2154
102
}
330
2154
100
AcDbXrecord
280
     1
102
RTVSPost2010Prop28
280
     0
102
RTVSPost2010PropOp28
 70
     1
102
RTVSPost2010Prop29
280
     1
102
RTVSPost2010PropOp29
 70
     1
102
RTVSPost2010Prop30
280
     1
102
RTVSPost2010PropOp30
 70
     1
102
RTVSPost2010Prop31
280
     0
102
RTVSPost2010PropOp31
 70
     1
102
RTVSPost2010Prop32
280
     0
102
RTVSPost2010PropOp32
 70
     1
102
RTVSPost2010Prop33
280
     0
102
RTVSPost2010PropOp33
 70
     1
102
RTVSPost2010Prop34
280
     0
102
RTVSPost2010PropOp34
 70
     1
102
RTVSPost2010Prop35
280
     0
102
RTVSPost2010PropOp35
 70
     1
102
RTVSPost2010Prop36
280
     0
102
RTVSPost2010PropOp36
 70
     1
102
RTVSPost2010Prop37
 90
       50
102
RTVSPost2010PropOp37
 70
     1
102
RTVSPost2010Prop38
140
0.0
102
RTVSPost2010PropOp38
 70
     1
102
RTVSPost2010Prop39
140
1.0
102
RTVSPost2010PropOp39
 70
     1
102
RTVSPost2010Prop40
 90
        0
102
RTVSPost2010PropOp40
 70
     1
102
RTVSPost2010Prop41ColorIndex
 90
       18
102
RTVSPost2010Prop41ColorRGB
 90
        0
102
RTVSPost2010PropOp41
 70
     1
102
RTVSPost2010Prop42
 90
       50
102
RTVSPost2010PropOp42
 70
     1
102
RTVSPost2010Prop43
 90
        3
102
RTVSPost2010PropOp43
 70
     1
102
RTVSPost2010Prop44ColorIndex
 90
        5
102
RTVSPost2010Prop44ColorRGB
 90
      255
102
RTVSPost2010PropOp44
 70
     1
102
RTVSPost2010Prop45
280
     0
102
RTVSPost2010PropOp45
 70
     1
102
RTVSPost2010Prop46
 90
       50
102
RTVSPost2010PropOp46
 70
     1
102
RTVSPost2010Prop47
 90
       50
102
RTVSPost2010PropOp47
 70
     1
102
RTVSPost2010Prop48
 90
       50
102
RTVSPost2010PropOp48
 70
     1
102
RTVSPost2010Prop49
280
     0
102
RTVSPost2010PropOp49
 70
     1
102
RTVSPost2010Prop50
 90
       50
102
RTVSPost2010PropOp50
 70
     1
102
RTVSPost2010Prop51ColorIndex
 90
      256
102
RTVSPost2010Prop51ColorRGB
 90
-16777216
102
RTVSPost2010PropOp51
 70
     0
102
RTVSPost2010Prop52
140
1.0
102
RTVSPost2010PropOp52
 70
     0
102
RTVSPost2010Prop53
 90
        2
102
RTVSPost2010PropOp53
 70
     1
102
RTVSPost2010Prop54
  1
strokes_ogs.tif
102
RTVSPost2010PropOp54
 70
     1
102
RTVSPost2010Prop55
280
     0
102
RTVSPost2010PropOp55
 70
     1
102
RTVSPost2010Prop56
140
1.0
102
RTVSPost2010PropOp56
 70
     1
102
RTVSPost2010Prop57
140
1.0
102
RTVSPost2010PropOp57
 70
     1
102
RTVSPropertyOp0
 70
     1
102
RTVSPropertyOp1
 70
     1
102
RTVSPropertyOp2
 70
     1
102
RTVSPropertyOp3
 70
     1
102
RTVSPropertyOp4
 70
     1
102
RTVSPropertyOp5
 70
     1
102
RTVSPropertyOp6
 70
     1
102
RTVSPropertyOp7
 70
     1
102
RTVSPropertyOp8
 70
     1
102
RTVSPropertyOp9
 70
     1
102
RTVSPropertyOp10
 70
     1
102
RTVSPropertyOp11
 70
     1
102
RTVSPropertyOp12
 70
     1
102
RTVSPropertyOp13
 70
     1
102
RTVSPropertyOp14
 70
     1
102
RTVSPropertyOp15
 70
     1
102
RTVSPropertyOp16
 70
     1
102
RTVSPropertyOp17
 70
     1
102
RTVSPropertyOp18
 70
     1
102
RTVSPropertyOp19
 70
     1
102
RTVSPropertyOp20
 70
     1
102
RTVSPropertyOp21
 70
     1
102
RTVSPropertyOp22
 70
     1
102
RTVSPropertyOp23
 70
     1
102
RTVSPropertyOp24
 70
     1
102
RTVSPropertyOp25
 70
     1
102
RTVSPropertyOp26
 70
     1
102
RTVSPropertyOp27
 70
     1
102
RTVSPropertyOp28
 70
     1
102
RTVSPropertyOp29
 70
     1
102
RTVSPropertyOp30
 70
     1
102
RTVSPropertyOp31
 70
     1
102
RTVSPropertyOp32
 70
     1
102
RTVSPropertyOp33
 70
     1
102
RTVSPropertyOp34
 70
     1
102
RTVSPropertyOp35
 70
     1
102
RTVSPropertyOp36
 70
     1
102
RTVSPropertyOp37
 70
     1
102
RTVSPropertyOp38
 70
     1
102
RTVSPropertyOp39
 70
     1
102
RTVSPropertyOp40
 70
     1
102
RTVSPropertyOp41
 70
     1
102
RTVSPropertyOp42
 70
     1
102
RTVSPropertyOp43
 70
     1
102
RTVSPropertyOp44
 70
     1
102
RTVSPropertyOp45
 70
     1
102
RTVSPropertyOp46
 70
     1
102
RTVSPropertyOp47
 70
     1
102
RTVSPropertyOp48
 70
     1
102
RTVSPropertyOp49
 70
     1
102
RTVSPropertyOp50
 70
     1
102
RTVSPropertyOp51
 70
     0
102
RTVSPropertyOp52
 70
     0
102
RTVSPropertyOp53
 70
     1
102
RTVSPropertyOp54
 70
     1
102
RTVSPropertyOp55
 70
     1
102
RTVSPropertyOp56
 70
     1
102
RTVSPropertyOp57
 70
     1
102
RTVSPropertyOp58
 70
     1
102
RTVSPropertyOp59
 70
     1
102
RTVSPropertyOp60
 70
     1
102
RTVSPropertyOp61
 70
     1
102
RTVSPropertyOp62
 70
     1
  0
XRECORD
  5
2173
102
{ACAD_REACTORS
330
2172
102
}
330
2172
100
AcDbXrecord
280
     1
102
RTVSPost2010Prop28
280
     0
102
RTVSPost2010PropOp28
 70
     1
102
RTVSPost2010Prop29
280
     1
102
RTVSPost2010PropOp29
 70
     1
102
RTVSPost2010Prop30
280
     1
102
RTVSPost2010PropOp30
 70
     1
102
RTVSPost2010Prop31
280
     0
102
RTVSPost2010PropOp31
 70
     1
102
RTVSPost2010Prop32
280
     0
102
RTVSPost2010PropOp32
 70
     1
102
RTVSPost2010Prop33
280
     0
102
RTVSPost2010PropOp33
 70
     1
102
RTVSPost2010Prop34
280
     0
102
RTVSPost2010PropOp34
 70
     1
102
RTVSPost2010Prop35
280
     0
102
RTVSPost2010PropOp35
 70
     1
102
RTVSPost2010Prop36
280
     0
102
RTVSPost2010PropOp36
 70
     1
102
RTVSPost2010Prop37
 90
       50
102
RTVSPost2010PropOp37
 70
     1
102
RTVSPost2010Prop38
140
0.0
102
RTVSPost2010PropOp38
 70
     1
102
RTVSPost2010Prop39
140
1.0
102
RTVSPost2010PropOp39
 70
     1
102
RTVSPost2010Prop40
 90
        0
102
RTVSPost2010PropOp40
 70
     1
102
RTVSPost2010Prop41ColorIndex
 90
       18
102
RTVSPost2010Prop41ColorRGB
 90
        0
102
RTVSPost2010PropOp41
 70
     1
102
RTVSPost2010Prop42
 90
       50
102
RTVSPost2010PropOp42
 70
     1
102
RTVSPost2010Prop43
 90
        3
102
RTVSPost2010PropOp43
 70
     1
102
RTVSPost2010Prop44ColorIndex
 90
        5
102
RTVSPost2010Prop44ColorRGB
 90
      255
102
RTVSPost2010PropOp44
 70
     1
102
RTVSPost2010Prop45
280
     0
102
RTVSPost2010PropOp45
 70
     1
102
RTVSPost2010Prop46
 90
       50
102
RTVSPost2010PropOp46
 70
     1
102
RTVSPost2010Prop47
 90
       50
102
RTVSPost2010PropOp47
 70
     1
102
RTVSPost2010Prop48
 90
       50
102
RTVSPost2010PropOp48
 70
     1
102
RTVSPost2010Prop49
280
     0
102
RTVSPost2010PropOp49
 70
     1
102
RTVSPost2010Prop50
 90
       50
102
RTVSPost2010PropOp50
 70
     1
102
RTVSPost2010Prop51ColorIndex
 90
      256
102
RTVSPost2010Prop51ColorRGB
 90
-16777216
102
RTVSPost2010PropOp51
 70
     0
102
RTVSPost2010Prop52
140
1.0
102
RTVSPost2010PropOp52
 70
     0
102
RTVSPost2010Prop53
 90
        2
102
RTVSPost2010PropOp53
 70
     1
102
RTVSPost2010Prop54
  1
strokes_ogs.tif
102
RTVSPost2010PropOp54
 70
     1
102
RTVSPost2010Prop55
280
     0
102
RTVSPost2010PropOp55
 70
     1
102
RTVSPost2010Prop56
140
1.0
102
RTVSPost2010PropOp56
 70
     1
102
RTVSPost2010Prop57
140
1.0
102
RTVSPost2010PropOp57
 70
     1
102
RTVSPropertyOp0
 70
     1
102
RTVSPropertyOp1
 70
     1
102
RTVSPropertyOp2
 70
     1
102
RTVSPropertyOp3
 70
     1
102
RTVSPropertyOp4
 70
     1
102
RTVSPropertyOp5
 70
     1
102
RTVSPropertyOp6
 70
     1
102
RTVSPropertyOp7
 70
     1
102
RTVSPropertyOp8
 70
     1
102
RTVSPropertyOp9
 70
     1
102
RTVSPropertyOp10
 70
     1
102
RTVSPropertyOp11
 70
     1
102
RTVSPropertyOp12
 70
     1
102
RTVSPropertyOp13
 70
     1
102
RTVSPropertyOp14
 70
     1
102
RTVSPropertyOp15
 70
     1
102
RTVSPropertyOp16
 70
     1
102
RTVSPropertyOp17
 70
     1
102
RTVSPropertyOp18
 70
     1
102
RTVSPropertyOp19
 70
     1
102
RTVSPropertyOp20
 70
     1
102
RTVSPropertyOp21
 70
     1
102
RTVSPropertyOp22
 70
     1
102
RTVSPropertyOp23
 70
     1
102
RTVSPropertyOp24
 70
     1
102
RTVSPropertyOp25
 70
     1
102
RTVSPropertyOp26
 70
     1
102
RTVSPropertyOp27
 70
     1
102
RTVSPropertyOp28
 70
     1
102
RTVSPropertyOp29
 70
     1
102
RTVSPropertyOp30
 70
     1
102
RTVSPropertyOp31
 70
     1
102
RTVSPropertyOp32
 70
     1
102
RTVSPropertyOp33
 70
     1
102
RTVSPropertyOp34
 70
     1
102
RTVSPropertyOp35
 70
     1
102
RTVSPropertyOp36
 70
     1
102
RTVSPropertyOp37
 70
     1
102
RTVSPropertyOp38
 70
     1
102
RTVSPropertyOp39
 70
     1
102
RTVSPropertyOp40
 70
     1
102
RTVSPropertyOp41
 70
     1
102
RTVSPropertyOp42
 70
     1
102
RTVSPropertyOp43
 70
     1
102
RTVSPropertyOp44
 70
     1
102
RTVSPropertyOp45
 70
     1
102
RTVSPropertyOp46
 70
     1
102
RTVSPropertyOp47
 70
     1
102
RTVSPropertyOp48
 70
     1
102
RTVSPropertyOp49
 70
     1
102
RTVSPropertyOp50
 70
     1
102
RTVSPropertyOp51
 70
     0
102
RTVSPropertyOp52
 70
     0
102
RTVSPropertyOp53
 70
     1
102
RTVSPropertyOp54
 70
     1
102
RTVSPropertyOp55
 70
     1
102
RTVSPropertyOp56
 70
     1
102
RTVSPropertyOp57
 70
     1
102
RTVSPropertyOp58
 70
     1
102
RTVSPropertyOp59
 70
     1
102
RTVSPropertyOp60
 70
     1
102
RTVSPropertyOp61
 70
     1
102
RTVSPropertyOp62
 70
     1
  0
XRECORD
  5
2171
102
{ACAD_REACTORS
330
2170
102
}
330
2170
100
AcDbXrecord
280
     1
102
RTVSPost2010Prop28
280
     0
102
RTVSPost2010PropOp28
 70
     1
102
RTVSPost2010Prop29
280
     1
102
RTVSPost2010PropOp29
 70
     1
102
RTVSPost2010Prop30
280
     1
102
RTVSPost2010PropOp30
 70
     1
102
RTVSPost2010Prop31
280
     0
102
RTVSPost2010PropOp31
 70
     1
102
RTVSPost2010Prop32
280
     0
102
RTVSPost2010PropOp32
 70
     1
102
RTVSPost2010Prop33
280
     0
102
RTVSPost2010PropOp33
 70
     1
102
RTVSPost2010Prop34
280
     0
102
RTVSPost2010PropOp34
 70
     1
102
RTVSPost2010Prop35
280
     0
102
RTVSPost2010PropOp35
 70
     1
102
RTVSPost2010Prop36
280
     0
102
RTVSPost2010PropOp36
 70
     1
102
RTVSPost2010Prop37
 90
       50
102
RTVSPost2010PropOp37
 70
     1
102
RTVSPost2010Prop38
140
0.0
102
RTVSPost2010PropOp38
 70
     1
102
RTVSPost2010Prop39
140
1.0
102
RTVSPost2010PropOp39
 70
     1
102
RTVSPost2010Prop40
 90
        0
102
RTVSPost2010PropOp40
 70
     1
102
RTVSPost2010Prop41ColorIndex
 90
       18
102
RTVSPost2010Prop41ColorRGB
 90
        0
102
RTVSPost2010PropOp41
 70
     1
102
RTVSPost2010Prop42
 90
       50
102
RTVSPost2010PropOp42
 70
     1
102
RTVSPost2010Prop43
 90
        3
102
RTVSPost2010PropOp43
 70
     1
102
RTVSPost2010Prop44ColorIndex
 90
        5
102
RTVSPost2010Prop44ColorRGB
 90
      255
102
RTVSPost2010PropOp44
 70
     1
102
RTVSPost2010Prop45
280
     0
102
RTVSPost2010PropOp45
 70
     1
102
RTVSPost2010Prop46
 90
       50
102
RTVSPost2010PropOp46
 70
     1
102
RTVSPost2010Prop47
 90
       50
102
RTVSPost2010PropOp47
 70
     1
102
RTVSPost2010Prop48
 90
       50
102
RTVSPost2010PropOp48
 70
     1
102
RTVSPost2010Prop49
280
     0
102
RTVSPost2010PropOp49
 70
     1
102
RTVSPost2010Prop50
 90
       50
102
RTVSPost2010PropOp50
 70
     1
102
RTVSPost2010Prop51ColorIndex
 90
      256
102
RTVSPost2010Prop51ColorRGB
 90
-16777216
102
RTVSPost2010PropOp51
 70
     0
102
RTVSPost2010Prop52
140
1.0
102
RTVSPost2010PropOp52
 70
     0
102
RTVSPost2010Prop53
 90
        2
102
RTVSPost2010PropOp53
 70
     1
102
RTVSPost2010Prop54
  1
strokes_ogs.tif
102
RTVSPost2010PropOp54
 70
     1
102
RTVSPost2010Prop55
280
     0
102
RTVSPost2010PropOp55
 70
     1
102
RTVSPost2010Prop56
140
1.0
102
RTVSPost2010PropOp56
 70
     1
102
RTVSPost2010Prop57
140
1.0
102
RTVSPost2010PropOp57
 70
     1
102
RTVSPropertyOp0
 70
     1
102
RTVSPropertyOp1
 70
     1
102
RTVSPropertyOp2
 70
     1
102
RTVSPropertyOp3
 70
     1
102
RTVSPropertyOp4
 70
     1
102
RTVSPropertyOp5
 70
     1
102
RTVSPropertyOp6
 70
     1
102
RTVSPropertyOp7
 70
     1
102
RTVSPropertyOp8
 70
     1
102
RTVSPropertyOp9
 70
     1
102
RTVSPropertyOp10
 70
     1
102
RTVSPropertyOp11
 70
     1
102
RTVSPropertyOp12
 70
     1
102
RTVSPropertyOp13
 70
     1
102
RTVSPropertyOp14
 70
     1
102
RTVSPropertyOp15
 70
     1
102
RTVSPropertyOp16
 70
     1
102
RTVSPropertyOp17
 70
     1
102
RTVSPropertyOp18
 70
     1
102
RTVSPropertyOp19
 70
     1
102
RTVSPropertyOp20
 70
     1
102
RTVSPropertyOp21
 70
     1
102
RTVSPropertyOp22
 70
     1
102
RTVSPropertyOp23
 70
     1
102
RTVSPropertyOp24
 70
     1
102
RTVSPropertyOp25
 70
     1
102
RTVSPropertyOp26
 70
     1
102
RTVSPropertyOp27
 70
     1
102
RTVSPropertyOp28
 70
     1
102
RTVSPropertyOp29
 70
     1
102
RTVSPropertyOp30
 70
     1
102
RTVSPropertyOp31
 70
     1
102
RTVSPropertyOp32
 70
     1
102
RTVSPropertyOp33
 70
     1
102
RTVSPropertyOp34
 70
     1
102
RTVSPropertyOp35
 70
     1
102
RTVSPropertyOp36
 70
     1
102
RTVSPropertyOp37
 70
     1
102
RTVSPropertyOp38
 70
     1
102
RTVSPropertyOp39
 70
     1
102
RTVSPropertyOp40
 70
     1
102
RTVSPropertyOp41
 70
     1
102
RTVSPropertyOp42
 70
     1
102
RTVSPropertyOp43
 70
     1
102
RTVSPropertyOp44
 70
     1
102
RTVSPropertyOp45
 70
     1
102
RTVSPropertyOp46
 70
     1
102
RTVSPropertyOp47
 70
     1
102
RTVSPropertyOp48
 70
     1
102
RTVSPropertyOp49
 70
     1
102
RTVSPropertyOp50
 70
     1
102
RTVSPropertyOp51
 70
     0
102
RTVSPropertyOp52
 70
     0
102
RTVSPropertyOp53
 70
     1
102
RTVSPropertyOp54
 70
     1
102
RTVSPropertyOp55
 70
     1
102
RTVSPropertyOp56
 70
     1
102
RTVSPropertyOp57
 70
     1
102
RTVSPropertyOp58
 70
     1
102
RTVSPropertyOp59
 70
     1
102
RTVSPropertyOp60
 70
     1
102
RTVSPropertyOp61
 70
     1
102
RTVSPropertyOp62
 70
     1
  0
XRECORD
  5
216B
102
{ACAD_REACTORS
330
216A
102
}
330
216A
100
AcDbXrecord
280
     1
102
RTVSPost2010Prop28
280
     0
102
RTVSPost2010PropOp28
 70
     1
102
RTVSPost2010Prop29
280
     1
102
RTVSPost2010PropOp29
 70
     1
102
RTVSPost2010Prop30
280
     1
102
RTVSPost2010PropOp30
 70
     1
102
RTVSPost2010Prop31
280
     0
102
RTVSPost2010PropOp31
 70
     1
102
RTVSPost2010Prop32
280
     0
102
RTVSPost2010PropOp32
 70
     1
102
RTVSPost2010Prop33
280
     0
102
RTVSPost2010PropOp33
 70
     1
102
RTVSPost2010Prop34
280
     0
102
RTVSPost2010PropOp34
 70
     1
102
RTVSPost2010Prop35
280
     0
102
RTVSPost2010PropOp35
 70
     1
102
RTVSPost2010Prop36
280
     0
102
RTVSPost2010PropOp36
 70
     1
102
RTVSPost2010Prop37
 90
       50
102
RTVSPost2010PropOp37
 70
     1
102
RTVSPost2010Prop38
140
0.0
102
RTVSPost2010PropOp38
 70
     1
102
RTVSPost2010Prop39
140
1.0
102
RTVSPost2010PropOp39
 70
     1
102
RTVSPost2010Prop40
 90
        0
102
RTVSPost2010PropOp40
 70
     1
102
RTVSPost2010Prop41ColorIndex
 90
       18
102
RTVSPost2010Prop41ColorRGB
 90
        0
102
RTVSPost2010PropOp41
 70
     1
102
RTVSPost2010Prop42
 90
       50
102
RTVSPost2010PropOp42
 70
     1
102
RTVSPost2010Prop43
 90
        3
102
RTVSPost2010PropOp43
 70
     1
102
RTVSPost2010Prop44ColorIndex
 90
        5
102
RTVSPost2010Prop44ColorRGB
 90
      255
102
RTVSPost2010PropOp44
 70
     1
102
RTVSPost2010Prop45
280
     0
102
RTVSPost2010PropOp45
 70
     1
102
RTVSPost2010Prop46
 90
       50
102
RTVSPost2010PropOp46
 70
     1
102
RTVSPost2010Prop47
 90
       50
102
RTVSPost2010PropOp47
 70
     1
102
RTVSPost2010Prop48
 90
       50
102
RTVSPost2010PropOp48
 70
     1
102
RTVSPost2010Prop49
280
     0
102
RTVSPost2010PropOp49
 70
     1
102
RTVSPost2010Prop50
 90
       50
102
RTVSPost2010PropOp50
 70
     1
102
RTVSPost2010Prop51ColorIndex
 90
      256
102
RTVSPost2010Prop51ColorRGB
 90
-16777216
102
RTVSPost2010PropOp51
 70
     0
102
RTVSPost2010Prop52
140
1.0
102
RTVSPost2010PropOp52
 70
     0
102
RTVSPost2010Prop53
 90
        2
102
RTVSPost2010PropOp53
 70
     1
102
RTVSPost2010Prop54
  1
strokes_ogs.tif
102
RTVSPost2010PropOp54
 70
     1
102
RTVSPost2010Prop55
280
     0
102
RTVSPost2010PropOp55
 70
     1
102
RTVSPost2010Prop56
140
1.0
102
RTVSPost2010PropOp56
 70
     1
102
RTVSPost2010Prop57
140
1.0
102
RTVSPost2010PropOp57
 70
     1
102
RTVSPropertyOp0
 70
     1
102
RTVSPropertyOp1
 70
     1
102
RTVSPropertyOp2
 70
     1
102
RTVSPropertyOp3
 70
     1
102
RTVSPropertyOp4
 70
     1
102
RTVSPropertyOp5
 70
     1
102
RTVSPropertyOp6
 70
     1
102
RTVSPropertyOp7
 70
     1
102
RTVSPropertyOp8
 70
     1
102
RTVSPropertyOp9
 70
     1
102
RTVSPropertyOp10
 70
     1
102
RTVSPropertyOp11
 70
     1
102
RTVSPropertyOp12
 70
     1
102
RTVSPropertyOp13
 70
     1
102
RTVSPropertyOp14
 70
     1
102
RTVSPropertyOp15
 70
     1
102
RTVSPropertyOp16
 70
     1
102
RTVSPropertyOp17
 70
     1
102
RTVSPropertyOp18
 70
     1
102
RTVSPropertyOp19
 70
     1
102
RTVSPropertyOp20
 70
     1
102
RTVSPropertyOp21
 70
     1
102
RTVSPropertyOp22
 70
     1
102
RTVSPropertyOp23
 70
     1
102
RTVSPropertyOp24
 70
     1
102
RTVSPropertyOp25
 70
     1
102
RTVSPropertyOp26
 70
     1
102
RTVSPropertyOp27
 70
     1
102
RTVSPropertyOp28
 70
     1
102
RTVSPropertyOp29
 70
     1
102
RTVSPropertyOp30
 70
     1
102
RTVSPropertyOp31
 70
     1
102
RTVSPropertyOp32
 70
     1
102
RTVSPropertyOp33
 70
     1
102
RTVSPropertyOp34
 70
     1
102
RTVSPropertyOp35
 70
     1
102
RTVSPropertyOp36
 70
     1
102
RTVSPropertyOp37
 70
     1
102
RTVSPropertyOp38
 70
     1
102
RTVSPropertyOp39
 70
     1
102
RTVSPropertyOp40
 70
     1
102
RTVSPropertyOp41
 70
     1
102
RTVSPropertyOp42
 70
     1
102
RTVSPropertyOp43
 70
     1
102
RTVSPropertyOp44
 70
     1
102
RTVSPropertyOp45
 70
     1
102
RTVSPropertyOp46
 70
     1
102
RTVSPropertyOp47
 70
     1
102
RTVSPropertyOp48
 70
     1
102
RTVSPropertyOp49
 70
     1
102
RTVSPropertyOp50
 70
     1
102
RTVSPropertyOp51
 70
     0
102
RTVSPropertyOp52
 70
     0
102
RTVSPropertyOp53
 70
     1
102
RTVSPropertyOp54
 70
     1
102
RTVSPropertyOp55
 70
     1
102
RTVSPropertyOp56
 70
     1
102
RTVSPropertyOp57
 70
     1
102
RTVSPropertyOp58
 70
     1
102
RTVSPropertyOp59
 70
     1
102
RTVSPropertyOp60
 70
     1
102
RTVSPropertyOp61
 70
     1
102
RTVSPropertyOp62
 70
     1
  0
XRECORD
  5
216D
102
{ACAD_REACTORS
330
216C
102
}
330
216C
100
AcDbXrecord
280
     1
102
RTVSPost2010Prop28
280
     0
102
RTVSPost2010PropOp28
 70
     1
102
RTVSPost2010Prop29
280
     1
102
RTVSPost2010PropOp29
 70
     1
102
RTVSPost2010Prop30
280
     1
102
RTVSPost2010PropOp30
 70
     1
102
RTVSPost2010Prop31
280
     0
102
RTVSPost2010PropOp31
 70
     1
102
RTVSPost2010Prop32
280
     0
102
RTVSPost2010PropOp32
 70
     1
102
RTVSPost2010Prop33
280
     0
102
RTVSPost2010PropOp33
 70
     1
102
RTVSPost2010Prop34
280
     0
102
RTVSPost2010PropOp34
 70
     1
102
RTVSPost2010Prop35
280
     0
102
RTVSPost2010PropOp35
 70
     1
102
RTVSPost2010Prop36
280
     0
102
RTVSPost2010PropOp36
 70
     1
102
RTVSPost2010Prop37
 90
       50
102
RTVSPost2010PropOp37
 70
     1
102
RTVSPost2010Prop38
140
0.0
102
RTVSPost2010PropOp38
 70
     1
102
RTVSPost2010Prop39
140
1.0
102
RTVSPost2010PropOp39
 70
     1
102
RTVSPost2010Prop40
 90
        0
102
RTVSPost2010PropOp40
 70
     1
102
RTVSPost2010Prop41ColorIndex
 90
       18
102
RTVSPost2010Prop41ColorRGB
 90
        0
102
RTVSPost2010PropOp41
 70
     1
102
RTVSPost2010Prop42
 90
       50
102
RTVSPost2010PropOp42
 70
     1
102
RTVSPost2010Prop43
 90
        3
102
RTVSPost2010PropOp43
 70
     1
102
RTVSPost2010Prop44ColorIndex
 90
        5
102
RTVSPost2010Prop44ColorRGB
 90
      255
102
RTVSPost2010PropOp44
 70
     1
102
RTVSPost2010Prop45
280
     0
102
RTVSPost2010PropOp45
 70
     1
102
RTVSPost2010Prop46
 90
       50
102
RTVSPost2010PropOp46
 70
     1
102
RTVSPost2010Prop47
 90
       50
102
RTVSPost2010PropOp47
 70
     1
102
RTVSPost2010Prop48
 90
       50
102
RTVSPost2010PropOp48
 70
     1
102
RTVSPost2010Prop49
280
     0
102
RTVSPost2010PropOp49
 70
     1
102
RTVSPost2010Prop50
 90
       50
102
RTVSPost2010PropOp50
 70
     1
102
RTVSPost2010Prop51ColorIndex
 90
      256
102
RTVSPost2010Prop51ColorRGB
 90
-16777216
102
RTVSPost2010PropOp51
 70
     0
102
RTVSPost2010Prop52
140
1.0
102
RTVSPost2010PropOp52
 70
     0
102
RTVSPost2010Prop53
 90
        2
102
RTVSPost2010PropOp53
 70
     1
102
RTVSPost2010Prop54
  1
strokes_ogs.tif
102
RTVSPost2010PropOp54
 70
     1
102
RTVSPost2010Prop55
280
     0
102
RTVSPost2010PropOp55
 70
     1
102
RTVSPost2010Prop56
140
1.0
102
RTVSPost2010PropOp56
 70
     1
102
RTVSPost2010Prop57
140
1.0
102
RTVSPost2010PropOp57
 70
     1
102
RTVSPropertyOp0
 70
     1
102
RTVSPropertyOp1
 70
     1
102
RTVSPropertyOp2
 70
     1
102
RTVSPropertyOp3
 70
     1
102
RTVSPropertyOp4
 70
     1
102
RTVSPropertyOp5
 70
     1
102
RTVSPropertyOp6
 70
     1
102
RTVSPropertyOp7
 70
     1
102
RTVSPropertyOp8
 70
     1
102
RTVSPropertyOp9
 70
     1
102
RTVSPropertyOp10
 70
     1
102
RTVSPropertyOp11
 70
     1
102
RTVSPropertyOp12
 70
     1
102
RTVSPropertyOp13
 70
     1
102
RTVSPropertyOp14
 70
     1
102
RTVSPropertyOp15
 70
     1
102
RTVSPropertyOp16
 70
     1
102
RTVSPropertyOp17
 70
     1
102
RTVSPropertyOp18
 70
     1
102
RTVSPropertyOp19
 70
     1
102
RTVSPropertyOp20
 70
     1
102
RTVSPropertyOp21
 70
     1
102
RTVSPropertyOp22
 70
     1
102
RTVSPropertyOp23
 70
     1
102
RTVSPropertyOp24
 70
     1
102
RTVSPropertyOp25
 70
     1
102
RTVSPropertyOp26
 70
     1
102
RTVSPropertyOp27
 70
     1
102
RTVSPropertyOp28
 70
     1
102
RTVSPropertyOp29
 70
     1
102
RTVSPropertyOp30
 70
     1
102
RTVSPropertyOp31
 70
     1
102
RTVSPropertyOp32
 70
     1
102
RTVSPropertyOp33
 70
     1
102
RTVSPropertyOp34
 70
     1
102
RTVSPropertyOp35
 70
     1
102
RTVSPropertyOp36
 70
     1
102
RTVSPropertyOp37
 70
     1
102
RTVSPropertyOp38
 70
     1
102
RTVSPropertyOp39
 70
     1
102
RTVSPropertyOp40
 70
     1
102
RTVSPropertyOp41
 70
     1
102
RTVSPropertyOp42
 70
     1
102
RTVSPropertyOp43
 70
     1
102
RTVSPropertyOp44
 70
     1
102
RTVSPropertyOp45
 70
     1
102
RTVSPropertyOp46
 70
     1
102
RTVSPropertyOp47
 70
     1
102
RTVSPropertyOp48
 70
     1
102
RTVSPropertyOp49
 70
     1
102
RTVSPropertyOp50
 70
     1
102
RTVSPropertyOp51
 70
     0
102
RTVSPropertyOp52
 70
     0
102
RTVSPropertyOp53
 70
     1
102
RTVSPropertyOp54
 70
     1
102
RTVSPropertyOp55
 70
     1
102
RTVSPropertyOp56
 70
     1
102
RTVSPropertyOp57
 70
     1
102
RTVSPropertyOp58
 70
     1
102
RTVSPropertyOp59
 70
     1
102
RTVSPropertyOp60
 70
     1
102
RTVSPropertyOp61
 70
     1
102
RTVSPropertyOp62
 70
     1
  0
XRECORD
  5
215B
102
{ACAD_REACTORS
330
215A
102
}
330
215A
100
AcDbXrecord
280
     1
102
RTVSPost2010Prop28
280
     0
102
RTVSPost2010PropOp28
 70
     1
102
RTVSPost2010Prop29
280
     1
102
RTVSPost2010PropOp29
 70
     1
102
RTVSPost2010Prop30
280
     1
102
RTVSPost2010PropOp30
 70
     1
102
RTVSPost2010Prop31
280
     0
102
RTVSPost2010PropOp31
 70
     1
102
RTVSPost2010Prop32
280
     0
102
RTVSPost2010PropOp32
 70
     1
102
RTVSPost2010Prop33
280
     0
102
RTVSPost2010PropOp33
 70
     1
102
RTVSPost2010Prop34
280
     0
102
RTVSPost2010PropOp34
 70
     1
102
RTVSPost2010Prop35
280
     0
102
RTVSPost2010PropOp35
 70
     1
102
RTVSPost2010Prop36
280
     0
102
RTVSPost2010PropOp36
 70
     1
102
RTVSPost2010Prop37
 90
       50
102
RTVSPost2010PropOp37
 70
     1
102
RTVSPost2010Prop38
140
0.0
102
RTVSPost2010PropOp38
 70
     1
102
RTVSPost2010Prop39
140
1.0
102
RTVSPost2010PropOp39
 70
     1
102
RTVSPost2010Prop40
 90
        0
102
RTVSPost2010PropOp40
 70
     1
102
RTVSPost2010Prop41ColorIndex
 90
       18
102
RTVSPost2010Prop41ColorRGB
 90
        0
102
RTVSPost2010PropOp41
 70
     1
102
RTVSPost2010Prop42
 90
       50
102
RTVSPost2010PropOp42
 70
     1
102
RTVSPost2010Prop43
 90
        3
102
RTVSPost2010PropOp43
 70
     1
102
RTVSPost2010Prop44ColorIndex
 90
        5
102
RTVSPost2010Prop44ColorRGB
 90
      255
102
RTVSPost2010PropOp44
 70
     1
102
RTVSPost2010Prop45
280
     0
102
RTVSPost2010PropOp45
 70
     1
102
RTVSPost2010Prop46
 90
       50
102
RTVSPost2010PropOp46
 70
     1
102
RTVSPost2010Prop47
 90
       50
102
RTVSPost2010PropOp47
 70
     1
102
RTVSPost2010Prop48
 90
       50
102
RTVSPost2010PropOp48
 70
     1
102
RTVSPost2010Prop49
280
     0
102
RTVSPost2010PropOp49
 70
     1
102
RTVSPost2010Prop50
 90
       50
102
RTVSPost2010PropOp50
 70
     1
102
RTVSPost2010Prop51ColorIndex
 90
      256
102
RTVSPost2010Prop51ColorRGB
 90
-16777216
102
RTVSPost2010PropOp51
 70
     0
102
RTVSPost2010Prop52
140
1.0
102
RTVSPost2010PropOp52
 70
     0
102
RTVSPost2010Prop53
 90
        2
102
RTVSPost2010PropOp53
 70
     1
102
RTVSPost2010Prop54
  1
strokes_ogs.tif
102
RTVSPost2010PropOp54
 70
     1
102
RTVSPost2010Prop55
280
     0
102
RTVSPost2010PropOp55
 70
     1
102
RTVSPost2010Prop56
140
1.0
102
RTVSPost2010PropOp56
 70
     1
102
RTVSPost2010Prop57
140
1.0
102
RTVSPost2010PropOp57
 70
     1
102
RTVSPropertyOp0
 70
     1
102
RTVSPropertyOp1
 70
     1
102
RTVSPropertyOp2
 70
     1
102
RTVSPropertyOp3
 70
     1
102
RTVSPropertyOp4
 70
     1
102
RTVSPropertyOp5
 70
     1
102
RTVSPropertyOp6
 70
     1
102
RTVSPropertyOp7
 70
     1
102
RTVSPropertyOp8
 70
     1
102
RTVSPropertyOp9
 70
     1
102
RTVSPropertyOp10
 70
     1
102
RTVSPropertyOp11
 70
     1
102
RTVSPropertyOp12
 70
     1
102
RTVSPropertyOp13
 70
     1
102
RTVSPropertyOp14
 70
     1
102
RTVSPropertyOp15
 70
     1
102
RTVSPropertyOp16
 70
     1
102
RTVSPropertyOp17
 70
     1
102
RTVSPropertyOp18
 70
     1
102
RTVSPropertyOp19
 70
     1
102
RTVSPropertyOp20
 70
     1
102
RTVSPropertyOp21
 70
     1
102
RTVSPropertyOp22
 70
     1
102
RTVSPropertyOp23
 70
     1
102
RTVSPropertyOp24
 70
     1
102
RTVSPropertyOp25
 70
     1
102
RTVSPropertyOp26
 70
     1
102
RTVSPropertyOp27
 70
     1
102
RTVSPropertyOp28
 70
     1
102
RTVSPropertyOp29
 70
     1
102
RTVSPropertyOp30
 70
     1
102
RTVSPropertyOp31
 70
     1
102
RTVSPropertyOp32
 70
     1
102
RTVSPropertyOp33
 70
     1
102
RTVSPropertyOp34
 70
     1
102
RTVSPropertyOp35
 70
     1
102
RTVSPropertyOp36
 70
     1
102
RTVSPropertyOp37
 70
     1
102
RTVSPropertyOp38
 70
     1
102
RTVSPropertyOp39
 70
     1
102
RTVSPropertyOp40
 70
     1
102
RTVSPropertyOp41
 70
     1
102
RTVSPropertyOp42
 70
     1
102
RTVSPropertyOp43
 70
     1
102
RTVSPropertyOp44
 70
     1
102
RTVSPropertyOp45
 70
     1
102
RTVSPropertyOp46
 70
     1
102
RTVSPropertyOp47
 70
     1
102
RTVSPropertyOp48
 70
     1
102
RTVSPropertyOp49
 70
     1
102
RTVSPropertyOp50
 70
     1
102
RTVSPropertyOp51
 70
     0
102
RTVSPropertyOp52
 70
     0
102
RTVSPropertyOp53
 70
     1
102
RTVSPropertyOp54
 70
     1
102
RTVSPropertyOp55
 70
     1
102
RTVSPropertyOp56
 70
     1
102
RTVSPropertyOp57
 70
     1
102
RTVSPropertyOp58
 70
     1
102
RTVSPropertyOp59
 70
     1
102
RTVSPropertyOp60
 70
     1
102
RTVSPropertyOp61
 70
     1
102
RTVSPropertyOp62
 70
     1
  0
XRECORD
  5
214F
102
{ACAD_REACTORS
330
214E
102
}
330
214E
100
AcDbXrecord
280
     1
102
RTVSPost2010Prop28
280
     0
102
RTVSPost2010PropOp28
 70
     1
102
RTVSPost2010Prop29
280
     1
102
RTVSPost2010PropOp29
 70
     1
102
RTVSPost2010Prop30
280
     1
102
RTVSPost2010PropOp30
 70
     1
102
RTVSPost2010Prop31
280
     0
102
RTVSPost2010PropOp31
 70
     1
102
RTVSPost2010Prop32
280
     0
102
RTVSPost2010PropOp32
 70
     1
102
RTVSPost2010Prop33
280
     0
102
RTVSPost2010PropOp33
 70
     1
102
RTVSPost2010Prop34
280
     0
102
RTVSPost2010PropOp34
 70
     1
102
RTVSPost2010Prop35
280
     0
102
RTVSPost2010PropOp35
 70
     1
102
RTVSPost2010Prop36
280
     0
102
RTVSPost2010PropOp36
 70
     1
102
RTVSPost2010Prop37
 90
       50
102
RTVSPost2010PropOp37
 70
     1
102
RTVSPost2010Prop38
140
0.0
102
RTVSPost2010PropOp38
 70
     1
102
RTVSPost2010Prop39
140
1.0
102
RTVSPost2010PropOp39
 70
     1
102
RTVSPost2010Prop40
 90
        0
102
RTVSPost2010PropOp40
 70
     1
102
RTVSPost2010Prop41ColorIndex
 90
       18
102
RTVSPost2010Prop41ColorRGB
 90
        0
102
RTVSPost2010PropOp41
 70
     1
102
RTVSPost2010Prop42
 90
       50
102
RTVSPost2010PropOp42
 70
     1
102
RTVSPost2010Prop43
 90
        3
102
RTVSPost2010PropOp43
 70
     1
102
RTVSPost2010Prop44ColorIndex
 90
        5
102
RTVSPost2010Prop44ColorRGB
 90
      255
102
RTVSPost2010PropOp44
 70
     1
102
RTVSPost2010Prop45
280
     0
102
RTVSPost2010PropOp45
 70
     1
102
RTVSPost2010Prop46
 90
       50
102
RTVSPost2010PropOp46
 70
     1
102
RTVSPost2010Prop47
 90
       50
102
RTVSPost2010PropOp47
 70
     1
102
RTVSPost2010Prop48
 90
       50
102
RTVSPost2010PropOp48
 70
     1
102
RTVSPost2010Prop49
280
     0
102
RTVSPost2010PropOp49
 70
     1
102
RTVSPost2010Prop50
 90
       50
102
RTVSPost2010PropOp50
 70
     1
102
RTVSPost2010Prop51ColorIndex
 90
      256
102
RTVSPost2010Prop51ColorRGB
 90
-16777216
102
RTVSPost2010PropOp51
 70
     0
102
RTVSPost2010Prop52
140
1.0
102
RTVSPost2010PropOp52
 70
     0
102
RTVSPost2010Prop53
 90
        2
102
RTVSPost2010PropOp53
 70
     1
102
RTVSPost2010Prop54
  1
strokes_ogs.tif
102
RTVSPost2010PropOp54
 70
     1
102
RTVSPost2010Prop55
280
     0
102
RTVSPost2010PropOp55
 70
     1
102
RTVSPost2010Prop56
140
1.0
102
RTVSPost2010PropOp56
 70
     1
102
RTVSPost2010Prop57
140
1.0
102
RTVSPost2010PropOp57
 70
     1
102
RTVSPropertyOp0
 70
     1
102
RTVSPropertyOp1
 70
     1
102
RTVSPropertyOp2
 70
     1
102
RTVSPropertyOp3
 70
     1
102
RTVSPropertyOp4
 70
     1
102
RTVSPropertyOp5
 70
     1
102
RTVSPropertyOp6
 70
     1
102
RTVSPropertyOp7
 70
     1
102
RTVSPropertyOp8
 70
     1
102
RTVSPropertyOp9
 70
     1
102
RTVSPropertyOp10
 70
     1
102
RTVSPropertyOp11
 70
     1
102
RTVSPropertyOp12
 70
     1
102
RTVSPropertyOp13
 70
     1
102
RTVSPropertyOp14
 70
     1
102
RTVSPropertyOp15
 70
     1
102
RTVSPropertyOp16
 70
     1
102
RTVSPropertyOp17
 70
     1
102
RTVSPropertyOp18
 70
     1
102
RTVSPropertyOp19
 70
     1
102
RTVSPropertyOp20
 70
     1
102
RTVSPropertyOp21
 70
     1
102
RTVSPropertyOp22
 70
     1
102
RTVSPropertyOp23
 70
     1
102
RTVSPropertyOp24
 70
     1
102
RTVSPropertyOp25
 70
     1
102
RTVSPropertyOp26
 70
     1
102
RTVSPropertyOp27
 70
     1
102
RTVSPropertyOp28
 70
     1
102
RTVSPropertyOp29
 70
     1
102
RTVSPropertyOp30
 70
     1
102
RTVSPropertyOp31
 70
     1
102
RTVSPropertyOp32
 70
     1
102
RTVSPropertyOp33
 70
     1
102
RTVSPropertyOp34
 70
     1
102
RTVSPropertyOp35
 70
     1
102
RTVSPropertyOp36
 70
     1
102
RTVSPropertyOp37
 70
     1
102
RTVSPropertyOp38
 70
     1
102
RTVSPropertyOp39
 70
     1
102
RTVSPropertyOp40
 70
     1
102
RTVSPropertyOp41
 70
     1
102
RTVSPropertyOp42
 70
     1
102
RTVSPropertyOp43
 70
     1
102
RTVSPropertyOp44
 70
     1
102
RTVSPropertyOp45
 70
     1
102
RTVSPropertyOp46
 70
     1
102
RTVSPropertyOp47
 70
     1
102
RTVSPropertyOp48
 70
     1
102
RTVSPropertyOp49
 70
     1
102
RTVSPropertyOp50
 70
     1
102
RTVSPropertyOp51
 70
     0
102
RTVSPropertyOp52
 70
     0
102
RTVSPropertyOp53
 70
     1
102
RTVSPropertyOp54
 70
     1
102
RTVSPropertyOp55
 70
     1
102
RTVSPropertyOp56
 70
     1
102
RTVSPropertyOp57
 70
     1
102
RTVSPropertyOp58
 70
     1
102
RTVSPropertyOp59
 70
     1
102
RTVSPropertyOp60
 70
     1
102
RTVSPropertyOp61
 70
     1
102
RTVSPropertyOp62
 70
     1
  0
XRECORD
  5
216F
102
{ACAD_REACTORS
330
216E
102
}
330
216E
100
AcDbXrecord
280
     1
102
RTVSPost2010Prop28
280
     0
102
RTVSPost2010PropOp28
 70
     1
102
RTVSPost2010Prop29
280
     1
102
RTVSPost2010PropOp29
 70
     1
102
RTVSPost2010Prop30
280
     1
102
RTVSPost2010PropOp30
 70
     1
102
RTVSPost2010Prop31
280
     0
102
RTVSPost2010PropOp31
 70
     1
102
RTVSPost2010Prop32
280
     0
102
RTVSPost2010PropOp32
 70
     1
102
RTVSPost2010Prop33
280
     0
102
RTVSPost2010PropOp33
 70
     1
102
RTVSPost2010Prop34
280
     0
102
RTVSPost2010PropOp34
 70
     1
102
RTVSPost2010Prop35
280
     0
102
RTVSPost2010PropOp35
 70
     1
102
RTVSPost2010Prop36
280
     0
102
RTVSPost2010PropOp36
 70
     1
102
RTVSPost2010Prop37
 90
       50
102
RTVSPost2010PropOp37
 70
     1
102
RTVSPost2010Prop38
140
0.0
102
RTVSPost2010PropOp38
 70
     1
102
RTVSPost2010Prop39
140
1.0
102
RTVSPost2010PropOp39
 70
     1
102
RTVSPost2010Prop40
 90
        0
102
RTVSPost2010PropOp40
 70
     1
102
RTVSPost2010Prop41ColorIndex
 90
       18
102
RTVSPost2010Prop41ColorRGB
 90
        0
102
RTVSPost2010PropOp41
 70
     1
102
RTVSPost2010Prop42
 90
       50
102
RTVSPost2010PropOp42
 70
     1
102
RTVSPost2010Prop43
 90
        3
102
RTVSPost2010PropOp43
 70
     1
102
RTVSPost2010Prop44ColorIndex
 90
        5
102
RTVSPost2010Prop44ColorRGB
 90
      255
102
RTVSPost2010PropOp44
 70
     1
102
RTVSPost2010Prop45
280
     0
102
RTVSPost2010PropOp45
 70
     1
102
RTVSPost2010Prop46
 90
       50
102
RTVSPost2010PropOp46
 70
     1
102
RTVSPost2010Prop47
 90
       50
102
RTVSPost2010PropOp47
 70
     1
102
RTVSPost2010Prop48
 90
       50
102
RTVSPost2010PropOp48
 70
     1
102
RTVSPost2010Prop49
280
     0
102
RTVSPost2010PropOp49
 70
     1
102
RTVSPost2010Prop50
 90
       50
102
RTVSPost2010PropOp50
 70
     1
102
RTVSPost2010Prop51ColorIndex
 90
      256
102
RTVSPost2010Prop51ColorRGB
 90
-16777216
102
RTVSPost2010PropOp51
 70
     0
102
RTVSPost2010Prop52
140
1.0
102
RTVSPost2010PropOp52
 70
     0
102
RTVSPost2010Prop53
 90
        2
102
RTVSPost2010PropOp53
 70
     1
102
RTVSPost2010Prop54
  1
strokes_ogs.tif
102
RTVSPost2010PropOp54
 70
     1
102
RTVSPost2010Prop55
280
     0
102
RTVSPost2010PropOp55
 70
     1
102
RTVSPost2010Prop56
140
1.0
102
RTVSPost2010PropOp56
 70
     1
102
RTVSPost2010Prop57
140
1.0
102
RTVSPost2010PropOp57
 70
     1
102
RTVSPropertyOp0
 70
     1
102
RTVSPropertyOp1
 70
     1
102
RTVSPropertyOp2
 70
     1
102
RTVSPropertyOp3
 70
     1
102
RTVSPropertyOp4
 70
     1
102
RTVSPropertyOp5
 70
     1
102
RTVSPropertyOp6
 70
     1
102
RTVSPropertyOp7
 70
     1
102
RTVSPropertyOp8
 70
     1
102
RTVSPropertyOp9
 70
     1
102
RTVSPropertyOp10
 70
     1
102
RTVSPropertyOp11
 70
     1
102
RTVSPropertyOp12
 70
     1
102
RTVSPropertyOp13
 70
     1
102
RTVSPropertyOp14
 70
     1
102
RTVSPropertyOp15
 70
     1
102
RTVSPropertyOp16
 70
     1
102
RTVSPropertyOp17
 70
     1
102
RTVSPropertyOp18
 70
     1
102
RTVSPropertyOp19
 70
     1
102
RTVSPropertyOp20
 70
     1
102
RTVSPropertyOp21
 70
     1
102
RTVSPropertyOp22
 70
     1
102
RTVSPropertyOp23
 70
     1
102
RTVSPropertyOp24
 70
     1
102
RTVSPropertyOp25
 70
     1
102
RTVSPropertyOp26
 70
     1
102
RTVSPropertyOp27
 70
     1
102
RTVSPropertyOp28
 70
     1
102
RTVSPropertyOp29
 70
     1
102
RTVSPropertyOp30
 70
     1
102
RTVSPropertyOp31
 70
     1
102
RTVSPropertyOp32
 70
     1
102
RTVSPropertyOp33
 70
     1
102
RTVSPropertyOp34
 70
     1
102
RTVSPropertyOp35
 70
     1
102
RTVSPropertyOp36
 70
     1
102
RTVSPropertyOp37
 70
     1
102
RTVSPropertyOp38
 70
     1
102
RTVSPropertyOp39
 70
     1
102
RTVSPropertyOp40
 70
     1
102
RTVSPropertyOp41
 70
     1
102
RTVSPropertyOp42
 70
     1
102
RTVSPropertyOp43
 70
     1
102
RTVSPropertyOp44
 70
     1
102
RTVSPropertyOp45
 70
     1
102
RTVSPropertyOp46
 70
     1
102
RTVSPropertyOp47
 70
     1
102
RTVSPropertyOp48
 70
     1
102
RTVSPropertyOp49
 70
     1
102
RTVSPropertyOp50
 70
     1
102
RTVSPropertyOp51
 70
     0
102
RTVSPropertyOp52
 70
     0
102
RTVSPropertyOp53
 70
     1
102
RTVSPropertyOp54
 70
     1
102
RTVSPropertyOp55
 70
     1
102
RTVSPropertyOp56
 70
     1
102
RTVSPropertyOp57
 70
     1
102
RTVSPropertyOp58
 70
     1
102
RTVSPropertyOp59
 70
     1
102
RTVSPropertyOp60
 70
     1
102
RTVSPropertyOp61
 70
     1
102
RTVSPropertyOp62
 70
     1
  0
ENDSEC
  0
EOF
